Oops, an error
Loading. Please wait.

Spoonful tab

version 2
version 2

Whole song

Interactive

by Cream
10,018 views 6 this week
4 commentsread comments
1 2 3 4 5
x 4
add to favorites
×
Save as Personal and add changes to this tab that will be seen only by you. Learn more ›
×
You can save this tab as Personal to edit and correct it or add notes. All changes will be seen only by you. Learn more »
launch autoscroll
font size
0
reset
how to read this tab
guitar tuner
backing track
0:00
0:00
edit
Autoscroll
slow
fast
+/-
esc
set tempo
stop
Author
Difficulty
Spoonful
Cream
tabbed by Gonseg

main riff
e||-------------------------------|    
B||---5/8-5--5/8-5--5/8----5-5-5--|    
G||-------------------------------| X3 
D||-------------------------------|    
A||-------------------------------|    
E||-------------------------------|    

fills:
e||---------------------------------------------------|
B||--8------------------------------------------------|
G||--7--7h9b------------------------------------------|
D||--6---------------12h14----------------------------|
A||--7---------12h14-----------5-7-7-7-5-5------------|
E||------------------------12--------------7-7-6-5-3-0|

e||-------|                                      
B||--8-5--|                                     
G||-------| X3 (then main riff about 8 times )   
D||-------|                                    
A||-------|                                      
E||-------|                                   

e||--10b~---------------------------------------| 
B||--------10r-8---8h10p8---8---8---------------|
G||-----------------------9---9---9p7-----------|
D||-----------------------------------7-5h7p5---|
A||-------------------------------------------7-|
E||---------------------------------------------|  


e||---------------------------------------------|
B||----------------------------------------8-5--|
G||---------------------------------------------|
D||--------------------------7p5---5------------|
A||--5h7p5-----------------------7---7-5--------|
E||--------7-7-6-6-5-5-3-0---------------7------|

solo:

e||------------------------------------------------------------------------------------------|
B||----10b~-8h10b~---------------------------------------------------------------------------|
G||-----------------16b--16b-16-14-12-14-12---12-14-14r-12-14--------16b~-14-12-14-----------|
D||-----------------------------------------------------------14-14----------------14-12-14--|
A||------------------------------------------------------------------------------------------|
E||------------------------------------------------------------------------------------------|


e||-----------------------------------------------12------------12----------------------|
B||--------------------------------------------12----15-12-15b-----15-12----12----------|
G||-------9---------------------14b-12-----14b---------------------------14----14-12-14-|
D||--9-12---{14-12-14-12}x3------------14-----------------------------------------------|
A||--------------------------7----------------------------------------------------------|
E||--------------------------0----------------------------------------------------------|


e||-----------------------------------------------------------------------------------|
B||--12-15-12-15-12----12-------------------------------------------------------------|
G||-----------------14-12-------14b-14-12-14-12----14b-14-12-14-12-----12-14-12-14----|
D||-----------------------14~~------------------14-----------------14--------------14-|
A||-----------------------------------------------------------------------------------|
E||-----------------------------------------------------------------------------------|


e||--------------------------------------------------------------------------------------------------|
B||--------------------------------------------------------------------------------------------------|
G||------------------------------------14b-14-12-14b-12-----12-14b-12-14-12--------------------------|
D||------14-------12-14-12------------------------------14------------------14----14b14b14b14b14b----|
A||---------12-14----------14-12---------------------------------------------------------------------|
E||--12--------------------------15-12-----------------------------------------12-----------------12-|


e||--------------------------------------------------------------------------------------------|
B||--------------------------------------------------------------------------------------------|
G||-----12--------12---------------------------------------------------------------------------|
D||-----14b-12-14-14b-12-14-12-14-----14b-12-14-14-14--14-12----12-----------------------------|
A||----------------------------------------------------------14----14-12-10-12-10--------------|
E||--12----------------------------12---------------------------------------------10-12-10-12--|


e||---------------------------------------------------------------------------------------|
B||---------------------------------------------------------------------------------------|
G||--------------------------------12-14b-12-------------12-14b-14b-12-------------14b----|
D||--{14b-12h14p12h14p12h14}x3--14-----------14h14p12-14---------------14-12-14-12-----14-|
A||---------------------------------------------------------------------------------------|
E||---------------------------------------------------------------------------------------|


e||----------------------------------------------------------------------------------------|
B||----------------------------------------------------------------------------------------|
G||--14-14-12-14-12-----14b-14-12-14-14b--------12-14-14b-12-------------------------------|
D||-----------------14--------------------12-14--------------14-12-14--------------9-12-16-|
A||-------------------------------------------------------------------14-12-10-------------|
E||----------------------------------------------------------------------------12----------|

            
            
Suggest correction
Creating personal tab
Creating personal tab
You can edit any tab online and save it as your Personal.

You can edit, replace or remove any tab part or add personal notes – all changes will be seen only by you.

Personal tabs can be accessed anytime from any device, even offline.
Learn more »
comments
print report bad tab
4 comments total. Showing first comments.
0 reply
ECwomantoneman 56 Dec 16, 2006 12:26 PM

Terribly sorry, but this is atrocious. The main riff is all wrong, you've only put in some fills, which are wrong, and the solo isn't any better. Better luck next time.

0 reply
Gonseg 365 Dec 24, 2006 06:29 AM

It's your own opinion. For me intervals are good in almost whole song and I think that intervals are the most importat things in music. And main riff is OK. Marry Christmas.

0 reply
ECwomantoneman 56 Dec 31, 2006 05:11 AM

Yeah maybe i was a bit harsh when said atrocious, Maybe "not 100%". Happy new year!

guest
You may want to rate the tab now too:
select rating
Wanna post a correction for this tab? Suggest correction