Oops, an error
Loading. Please wait.

Strange Brew Tab

version 1
version 1
18,947 views 6 this week
1 commentread comment
1 2 3 4 5
x 3
add to favorites
launch autoscroll
font size
0
reset
how to read this tab
guitar tuner
Autoscroll
slow
fast
+/-
esc
set tempo
stop
Help us to improve Ultimate-Guitar.com Take our survey!
×
                            CREAM
                         STRANGE BREW

STANDARD TUNING
EADGBe


---3h5----3h5-3---------------------------|
-----------------3b---3-------------------|
--------------------5---5b----8p7p5-------|
------------------------------------7-----|
------------------------------------------|
------------------------------------------|


---8p5---8p5---------------------8-5---|
-------------8-5---------------5-------|
-----------------7p5-------5s7---------|
---------------------7-----------------|
---------------------------------------|
---------------------------------------|

strange brew killin whats inside of you
----------5-3----------------------|
------5b------5-3------------------|
------------------5----------------|
--------------------2--------------|
-----------------------------------|
-----------------------------------|

oh whatcha gonna do
--5b--5p3--------------|
----------5-3----------|
--------------5--------|
----------------2------|
-----------------------|
-----------------------|

then there a solo coming up
that is all i have so far
this is a good basic blues song
peace
Suggest correction
Give kudos to tab author, rate the tab!
1 2 3 4 5
comments
print report bad tab
1 comment total.
0 reply
Robnfguitarplay 42 Jun 22, 2006 06:06 PM

Eric Clapton uses the A minor pentatonic for this song. You have none scale notes used in your example.

lead- intro

e-------------------------------------------------------
B----10--8--5-------------------------------------------
G--------------5---------5------------------------------
D------------------7--7-----7---------------------------
A-------------------------------------------------------
E-------------------------------------------------------

guest
You may want to rate the tab now too:
select rating
Wanna post a correction for this tab? Suggest correction