Oops, an error
Loading. Please wait.
We have an official Sunshine Of Your Love tab made by UG professional guitarists. Check out the tab »
×

Sunshine Of Your Love bass

version 6
version 6

Whole song

by Cream
61 views 3 this week
no commentswrite comment
1 2 3 4 5
3 more votes to show rating
add to favorites
×
Save as Personal and add changes to this tab that will be seen only by you. Learn more ›
×
You can save this tab as Personal to edit and correct it or add notes. All changes will be seen only by you. Learn more »
launch autoscroll
font size
0
reset
guitar tuner
backing track
0:00
0:00
edit
Autoscroll
slow
fast
+/-
esc
set tempo
stop
About this tab version
This is the tab for the studio version. Was this info helpful? Yes No
Artist: Cream
Song: Sunshine of your love
Album: Disraeli Gears

[Intro]
G|-7-7-5-7-------------------------|
D|-----------7---6---5-----3-------|
A|-----------------------5-----5---|
E|---------------------------------| x2

[Verse]
G|---------------------------------|
D|-----------7---6---5-----3-------|
A|-5-5-3-5---------------5-----5---|
E|---------------------------------| x6

G|---------------------------------|
D|-5-5-3-5-------------------------|
A|-----------5---4---3-----1-------|
E|-----------------------3-----3---| x2

G|---------------------------------|
D|-----------7---6---5-----3-------|
A|-5-5-3-5---------------5-----5---|
E|---------------------------------| x2
  
[Chorus]
G|---------------------------------|
D|---------------------------------|
A|-----------------3---------------|
E|-5--55-------------------3-------| x3
 
[Verse]
G|---------------------------------|
D|-----------7---6---5-----3-------|
A|-5-5-3-5---------------5-----5---|
E|---------------------------------| x5

G|---------------------------------|
D|-5-5-3-5-------------------------|
A|-----------5---4---3-----1-------|
E|-----------------------3-----3---| x2
  
G|---------------------------------|
D|-----------7---6---5-----3-------|
A|-5-5-3-5---------------5-----5---|
E|---------------------------------| x2
  
[Verse]
G|---------------------------------|
D|---------------------------------|
A|-----------------3---------------|
E|-5--55-------------------3-------| x3

[Solo]
G|---------------------------------|
D|-----------7---6---5-----3-------|
A|-5-5-3-5---------------5-----5---|
E|---------------------------------| x4
 
G|---------------------------------|
D|-5-5-3-5-------------------------|
A|-----------5---4---3-----1-------|
E|-----------------------3-----3---| x2

G|---------------------------------|
D|-----------7---6---5-----3-------|
A|-5-5-3-5---------------5-----5---|
E|---------------------------------| x2
  
G|---------------------------------|
D|---------------------------------|
A|-----------------3---------------|
E|-5--55-------------------3-------| x3
  
G|---------------------------------|
D|---------------------------------|
A|-----------------------------3-4-|
E|-5--55--55--55--55-5-5-5-5-5-----|
  
[Verse]
G|---------------------------------|
D|-----------7---6---5-----3-------|
A|-5-5-3-5---------------5-----5---|
E|---------------------------------| x6

G|---------------------------------|
D|-5-5-3-5-------------------------|
A|-----------5---4---3-----1-------|
E|-----------------------3-----3---| x2
  
G|---------------------------------|
D|-----------7---6---5-----3-------|
A|-5-5-3-5---------------5-----5---|
E|---------------------------------| x2
 
[Chorus]
G|---------------------------------|
D|---------------------------------|
A|-----------------3---------------|
E|-5--55-------------------3-------| x5
  
[Outro]
G|---------------------------------|
D|---------------------------------|
A|---------------------------------|
E|-5--55--55--55--55--55--55--55---|
 
Lyrics:
It's getting near dawn,
When lights close their tired eyes
I'll soon be with you my love,
To give you my dawn surprise
I'll be with you darling soon,
I'll be with you when the stars start falling

I've been waiting so long
To be where I'm going
In the sunshine of your love

I'm with you my love,
The light's shining through on you
Yes, I'm with you my love,
It's the morning and just we two
I'll stay with you darling now,
I'll stay with you till my seas are dried up

I've been waiting so long
To be where I'm going
In the sunshine of your love

I'm with you my love,
The light's shining through on you.
Yes, I'm with you my love,
It's the morning and just we two.
I'll stay with you darling now,
I'll stay with you till my seas are dried up

I've been waiting so long
I've been waiting so long
I've been waiting so long
To be where I'm going
In the sunshine of your love

            
            
Suggest correction
Creating personal tab
Creating personal tab
You can edit any tab online and save it as your Personal.

You can edit, replace or remove any tab part or add personal notes – all changes will be seen only by you.

Personal tabs can be accessed anytime from any device, even offline.
Learn more »
Give kudos to tab author, rate the tab!
1 2 3 4 5
comments
print report bad tab
guest
You may want to rate the tab now too:
select rating
Wanna post a correction for this tab? Suggest correction