Oops, an error
Loading. Please wait.
We have an official Sunshine Of Your Love tab made by UG professional guitarists. Check out the tab »
×
by Cream
202,586 views 537 this week
21 commentsread comments
1 2 3 4 5
x 120
add to favorites
×
Save as Personal and add changes to this tab that will be seen only by you. Learn more ›
×
You can save this tab as Personal to edit and correct it or add notes. All changes will be seen only by you. Learn more »
launch autoscroll
font size
0
reset
how to read this tab
guitar tuner
backing track
0:00
0:00
edit
Autoscroll
slow
fast
+/-
esc
set tempo
stop
Author
Sunshine of Your Love by Cream
Tabbed by Kevin


[Intro]

e|----------------------|----------------------|
b|----------------------|----------------------|
g|----------------------|----------------------|
d|-12-12-10-12----------|----------------------|
a|--------------12---11-|-10--------8b---------|
e|----------------------|------10-------10-----|

e|----------------------|----------------------|
b|----------------------|----------------------|
g|----------------------|----------------------|
d|-12-12-10-12----------|----------------------|
a|--------------12---11-|-10--------8b---------|
e|----------------------|------10-------10-----|

   D  D  C  D
e|----------------------|----------------------|
b|----------------------|----------------------|
g|-11-11-9--11----------|------12---10b--------|
d|-12-12-10-12----------|------12--------12----|
a|-12-12-10-12--12---11-|-10-------------------|
e|-10-10-8--10----------|----------------------|

   D  D  C  D
e|----------------------|----------------------|
b|----------------------|----------------------|
g|-11-11-9--11----------|------12---10b--------|
d|-12-12-10-12----------|------12--------12----|
a|-12-12-10-12--12---11-|-10-------------------|
e|-10-10-8--10----------|----------------------|


[Verse]

   D  D  C  D
e|----------------------|----------------------|
b|----------------------|----------------------|
g|-11-11-9--11----------|------12---10b--------|
d|-12-12-10-12----------|------12--------12----|
a|-12-12-10-12--12---11-|-10-------------------|
e|-10-10-8--10----------|----------------------|

   D  D  C  D
e|----------------------|----------------------|
b|----------------------|----------------------|
g|-11-11-9--11----------|------12---10b--------|
d|-12-12-10-12----------|------12--------12----|
a|-12-12-10-12--12---11-|-10-------------------|
e|-10-10-8--10----------|----------------------|

   D  D  C  D
e|----------------------|----------------------|
b|----------------------|----------------------|
g|-11-11-9--11----------|------12---10b--------|
d|-12-12-10-12----------|------12--------12----|
a|-12-12-10-12--12---11-|-10-------------------|
e|-10-10-8--10----------|----------------------|

   D  D  C  D
e|----------------------|----------------------|
b|----------------------|----------------------|
g|-11-11-9--11----------|------12---10b--------|
d|-12-12-10-12----------|------12--------12----|
a|-12-12-10-12--12---11-|-10-------------------|
e|-10-10-8--10----------|----------------------|

   G  G  F  G
e|----------------------|----------------------|
b|-12-12-10-12----------|----------------------|
g|-12-12-10-12----------|----------------------|
d|-12-12-10-12--12---11-|-10--------8b---------|
a|-10-10-8--10----------|------10-------10-----|
e|----------------------|----------------------|

   G  G  F  G
e|----------------------|----------------------|
b|-12-12-10-12----------|----------------------|
g|-12-12-10-12----------|----------------------|
d|-12-12-10-12--12---11-|-10--------8b---------|
a|-10-10-8--10----------|------10-------10-----|
e|----------------------|----------------------|

   D  D  C  D
e|----------------------|----------------------|
b|----------------------|----------------------|
g|-11-11-9--11----------|----------------------|
d|-12-12-10-12----------|----------------------|
a|-12-12-10-12--12---11-|-10--------8b---------|
e|-10-10-8--10----------|------10-------10-----|

   D  D  C  D
e|----------------------|----------------------|
b|----------------------|----------------------|
g|-11-11-9--11----------|----------------------|
d|-12-12-10-12----------|----------------------|
a|-12-12-10-12--12---11-|-10--------8b---------|
e|-10-10-8--10----------|------10-------10-----|


[Chorus]

     A    A  A              C         G
e|----------------------|----------------------|
b|----------------------|---5------------------|
g|---6----6--6----------|---5---------4--------|
d|---7----7--7----------|---5---------5--------|
a|---7----7--7----------|---3---------5--------|
e|---5----5--5----------|-------------3--------|

     A    A  A              C         G
e|----------------------|----------------------|
b|----------------------|---5------------------|
g|---6----6--6----------|---5---------4--------|
d|---7----7--7----------|---5---------5--------|
a|---7----7--7----------|---3---------5--------|
e|---5----5--5----------|-------------3--------|

     A    A  A              C         G
e|----------------------|----------------------|
b|----------------------|---5------------------|
g|---6----6--6----------|---5---------4--------|
d|---7----7--7----------|---5---------5--------|
a|---7----7--7----------|---3---------5--------|
e|---5----5--5----------|-------------3--------|

     A    A  A   A  A   A  A    A  A A A A A A A
e|---------------------------|--------------------|
b|---------------------------|--------------------|
g|---6----6--6---6--6---6--6-|--6--6-6-6-6-6-6-6--|
d|---7----7--7---7--7---7--7-|--7--7-7-7-7-7-7-7--|
a|---7----7--7---7--7---7--7-|--7--7-7-7-7-7-7-7--|
e|---5----5--5---5--5---5--5-|--5--5-5-5-5-5-5-5--|


[Main Riff]

   D  D  C  D
e|----------------------|----------------------|
b|----------------------|----------------------|
g|-11-11-9--11----------|------12---10b--------|
d|-12-12-10-12----------|------12--------12----|
a|-12-12-10-12--12---11-|-10-------------------|
e|-10-10-8--10----------|----------------------|


[Verse]

   D  D  C  D
e|----------------------|----------------------|
b|----------------------|----------------------|
g|-11-11-9--11----------|------12---10b--------|
d|-12-12-10-12----------|------12--------12----|
a|-12-12-10-12--12---11-|-10-------------------|
e|-10-10-8--10----------|----------------------|

   D  D  C  D
e|----------------------|----------------------|
b|----------------------|----------------------|
g|-11-11-9--11----------|------12---10b--------|
d|-12-12-10-12----------|------12--------12----|
a|-12-12-10-12--12---11-|-10-------------------|
e|-10-10-8--10----------|----------------------|

   D  D  C  D
e|----------------------|----------------------|
b|----------------------|----------------------|
g|-11-11-9--11----------|------12---10b--------|
d|-12-12-10-12----------|------12--------12----|
a|-12-12-10-12--12---11-|-10-------------------|
e|-10-10-8--10----------|----------------------|

   D  D  C  D
e|----------------------|----------------------|
b|----------------------|----------------------|
g|-11-11-9--11----------|------12---10b--------|
d|-12-12-10-12----------|------12--------12----|
a|-12-12-10-12--12---11-|-10-------------------|
e|-10-10-8--10----------|----------------------|

   G  G  F  G
e|----------------------|----------------------|
b|-12-12-10-12----------|----------------------|
g|-12-12-10-12----------|----------------------|
d|-12-12-10-12--12---11-|-10--------8b---------|
a|-10-10-8--10----------|------10-------10-----|
e|----------------------|----------------------|

   G  G  F  G
e|----------------------|----------------------|
b|-12-12-10-12----------|----------------------|
g|-12-12-10-12----------|----------------------|
d|-12-12-10-12--12---11-|-10--------8b---------|
a|-10-10-8--10----------|------10-------10-----|
e|----------------------|----------------------|

   D  D  C  D
e|----------------------|----------------------|
b|----------------------|----------------------|
g|-11-11-9--11----------|------12---10b--------|
d|-12-12-10-12----------|------12--------12----|
a|-12-12-10-12--12---11-|-10-------------------|
e|-10-10-8--10----------|----------------------|

   D  D  C  D
e|----------------------|----------------------|
b|----------------------|----------------------|
g|-11-11-9--11----------|------12---10b--------|
d|-12-12-10-12----------|------12--------12----|
a|-12-12-10-12--12---11-|-10-------------------|
e|-10-10-8--10----------|----------------------|


[Chorus]

     A    A  A              C         G
e|----------------------|----------------------|
b|----------------------|---5------------------|
g|---6----6--6----------|---5---------4--------|
d|---7----7--7----------|---5---------5--------|
a|---7----7--7----------|---3---------5--------|
e|---5----5--5----------|-------------3--------|

     A    A  A              C         G
e|----------------------|----------------------|
b|----------------------|---5------------------|
g|---6----6--6----------|---5---------4--------|
d|---7----7--7----------|---5---------5--------|
a|---7----7--7----------|---3---------5--------|
e|---5----5--5----------|-------------3--------|

     A    A  A              C         G
e|----------------------|----------------------|
b|----------------------|---5------------------|
g|---6----6--6----------|---5---------4--------|
d|---7----7--7----------|---5---------5--------|
a|---7----7--7----------|---3---------5--------|
e|---5----5--5----------|-------------3--------|

     A    A  A   A  A   A  A    A  A   A  A   A  A   A 
e|---------------------------|---------------------------|
b|---------------------------|---------------------------|
g|---6----6--6---6--6---6--6-|--6--6---6--6---6--6---6---|
d|---7----7--7---7--7---7--7-|--7--7---7--7---7--7---7---|
a|---7----7--7---7--7---7--7-|--7--7---7--7---7--7---7---|
e|---5----5--5---5--5---5--5-|--5--5---5--5---5--5---5---|


[Under solo]

   D  D  C  D
e|----------------------|----------------------|
b|----------------------|----------------------|
g|-11-11-9--11----------|----------------------|
d|-12-12-10-12----------|----------------------|
a|-12-12-10-12--12---11-|-10--------8b---------|
e|-10-10-8--10----------|------10-------10-----|

   D  D  C  D
e|----------------------|----------------------|
b|----------------------|----------------------|
g|-11-11-9--11----------|----------------------|
d|-12-12-10-12----------|----------------------|
a|-12-12-10-12--12---11-|-10--------8b---------|
e|-10-10-8--10----------|------10-------10-----|

   D  D  C  D
e|----------------------|----------------------|
b|----------------------|----------------------|
g|-11-11-9--11----------|----------------------|
d|-12-12-10-12----------|----------------------|
a|-12-12-10-12--12---11-|-10--------8b---------|
e|-10-10-8--10----------|------10-------10-----|

   D  D  C  D
e|----------------------|----------------------|
b|----------------------|----------------------|
g|-11-11-9--11----------|----------------------|
d|-12-12-10-12----------|----------------------|
a|-12-12-10-12--12---11-|-10--------8b---------|
e|-10-10-8--10----------|------10-------10-----|

   G  G  F  G
e|----------------------|----------------------|
b|-12-12-10-12----------|----------------------|
g|-12-12-10-12----------|----------------------|
d|-12-12-10-12--12---11-|-10--------8b---------|
a|-10-10-8--10----------|------10-------10-----|
e|----------------------|----------------------|

   G  G  F  G
e|----------------------|----------------------|
b|-12-12-10-12----------|----------------------|
g|-12-12-10-12----------|----------------------|
d|-12-12-10-12--12---11-|-10--------8b---------|
a|-10-10-8--10----------|------10-------10-----|
e|----------------------|----------------------|

   D  D  C  D
e|----------------------|----------------------|
b|----------------------|----------------------|
g|-11-11-9--11----------|----------------------|
d|-12-12-10-12----------|----------------------|
a|-12-12-10-12--12---11-|-10--------8b---------|
e|-10-10-8--10----------|------10-------10-----|

   D  D  C  D
e|----------------------|----------------------|
b|----------------------|----------------------|
g|-11-11-9--11----------|----------------------|
d|-12-12-10-12----------|----------------------|
a|-12-12-10-12--12---11-|-10--------8b---------|
e|-10-10-8--10----------|------10-------10-----|

     A    A  A              C         G
e|----------------------|----------------------|
b|----------------------|---5------------------|
g|---6----6--6----------|---5---------4--------|
d|---7----7--7----------|---5---------5--------|
a|---7----7--7----------|---3---------5--------|
e|---5----5--5----------|-------------3--------|

     A    A  A              C         G
e|----------------------|----------------------|
b|----------------------|---5------------------|
g|---6----6--6----------|---5---------4--------|
d|---7----7--7----------|---5---------5--------|
a|---7----7--7----------|---3---------5--------|
e|---5----5--5----------|-------------3--------|

     A    A  A              C         G
e|----------------------|----------------------|
b|----------------------|---5------------------|
g|---6----6--6----------|---5---------4--------|
d|---7----7--7----------|---5---------5--------|
a|---7----7--7----------|---3---------5--------|
e|---5----5--5----------|-------------3--------|

     A    A  A   A  A   A  A    A  A   A  A   A  A  A  
e|---------------------------|--------------------------|
b|---------------------------|--------------------------|
g|---6----6--6---6--6---6--6-|--6--6---6--6---6--6--6---|
d|---7----7--7---7--7---7--7-|--7--7---7--7---7--7--7---|
a|---7----7--7---7--7---7--7-|--7--7---7--7---7--7--7---|
e|---5----5--5---5--5---5--5-|--5--5---5--5---5--5--5---|


[Main Riff]

  D  D  C  D
e|----------------------|----------------------|
b|----------------------|----------------------|
g|-11-11-9--11----------|----------------------|
d|-12-12-10-12----------|----------------------|
a|-12-12-10-12--12---11-|-10--------8b---------|
e|-10-10-8--10----------|------10-------10-----|

   D  D  C  D
e|----------------------|----------------------|
b|----------------------|----------------------|
g|-11-11-9--11----------|------12---10b--------|
d|-12-12-10-12----------|------12--------12----|
a|-12-12-10-12--12---11-|-10-------------------|
e|-10-10-8--10----------|----------------------|


[Verse]

   D  D  C  D
e|----------------------|----------------------|
b|----------------------|----------------------|
g|-11-11-9--11----------|------12---10b--------|
d|-12-12-10-12----------|------12--------12----|
a|-12-12-10-12--12---11-|-10-------------------|
e|-10-10-8--10----------|----------------------|

   D  D  C  D
e|----------------------|----------------------|
b|----------------------|----------------------|
g|-11-11-9--11----------|------12---10b--------|
d|-12-12-10-12----------|------12--------12----|
a|-12-12-10-12--12---11-|-10-------------------|
e|-10-10-8--10----------|----------------------|

   D  D  C  D
e|----------------------|----------------------|
b|----------------------|----------------------|
g|-11-11-9--11----------|------12---10b--------|
d|-12-12-10-12----------|------12--------12----|
a|-12-12-10-12--12---11-|-10-------------------|
e|-10-10-8--10----------|----------------------|

   D  D  C  D
e|----------------------|----------------------|
b|----------------------|----------------------|
g|-11-11-9--11----------|------12---10b--------|
d|-12-12-10-12----------|------12--------12----|
a|-12-12-10-12--12---11-|-10-------------------|
e|-10-10-8--10----------|----------------------|

   G  G  F  G
e|----------------------|----------------------|
b|-12-12-10-12----------|----------------------|
g|-12-12-10-12----------|----------------------|
d|-12-12-10-12--12---11-|-10--------8b---------|
a|-10-10-8--10----------|------10-------10-----|
e|----------------------|----------------------|

   G  G  F  G
e|----------------------|----------------------|
b|-12-12-10-12----------|----------------------|
g|-12-12-10-12----------|----------------------|
d|-12-12-10-12--12---11-|-10--------8b---------|
a|-10-10-8--10----------|------10-------10-----|
e|----------------------|----------------------|

   D  D  C  D
e|----------------------|----------------------|
b|----------------------|----------------------|
g|-11-11-9--11----------|------12---10b--------|
d|-12-12-10-12----------|------12--------12----|
a|-12-12-10-12--12---11-|-10-------------------|
e|-10-10-8--10----------|----------------------|

   D  D  C  D
e|----------------------|----------------------|
b|----------------------|----------------------|
g|-11-11-9--11----------|------12---10b--------|
d|-12-12-10-12----------|------12--------12----|
a|-12-12-10-12--12---11-|-10-------------------|
e|-10-10-8--10----------|----------------------|


[Chorus]

     A    A  A              C         G
e|----------------------|----------------------|
b|----------------------|---5------------------|
g|---6----6--6----------|---5---------4--------|
d|---7----7--7----------|---5---------5--------|
a|---7----7--7----------|---3---------5--------|
e|---5----5--5----------|-------------3--------|

     A    A  A              C         G
e|----------------------|----------------------|
b|----------------------|---5------------------|
g|---6----6--6----------|---5---------4--------|
d|---7----7--7----------|---5---------5--------|
a|---7----7--7----------|---3---------5--------|
e|---5----5--5----------|-------------3--------|

     A    A  A              C         G
e|----------------------|----------------------|
b|----------------------|---5------------------|
g|---6----6--6----------|---5---------4--------|
d|---7----7--7----------|---5---------5--------|
a|---7----7--7----------|---3---------5--------|
e|---5----5--5----------|-------------3--------|

     A    A  A              C         G
e|----------------------|----------------------|
b|----------------------|---5------------------|
g|---6----6--6----------|---5---------4--------|
d|---7----7--7----------|---5---------5--------|
a|---7----7--7----------|---3---------5--------|
e|---5----5--5----------|-------------3--------|

     A    A  A              C         G
e|----------------------|----------------------|
b|----------------------|---5------------------|
g|---6----6--6----------|---5---------4--------|
d|---7----7--7----------|---5---------5--------|
a|---7----7--7----------|---3---------5--------|
e|---5----5--5----------|-------------3--------|

     A    A  A    A  A   
e|----------------------|
b|----------------------|
g|---6----6--6----6--6--| (repeat until end of song)
d|---7----7--7----7--7--|
a|---7----7--7----7--7--|
e|---5----5--5----5--5--|



************************************

| b  Bend

************************************
Suggest correction
Creating personal tab
Creating personal tab
You can edit any tab online and save it as your Personal.

You can edit, replace or remove any tab part or add personal notes – all changes will be seen only by you.

Personal tabs can be accessed anytime from any device, even offline.
Learn more »
comments
print report bad tab
21 comments total. Showing first comments.
+10 reply
randy_roads 80 Aug 18, 2006 11:20 PM

U idiots. This is by far the closest tab on this site. ALthoughh, in the verses, the d string is mute, so its more like this.

e|----------------------|----------------------|
b|----------------------|----------------------|
g|-11-11-9--11----------|-----------10b--------|
d|--x--x--x--x----------|------12--------12----|
a|-12-12-10-12--12---11-|-10-------------------|
e|-10-10-8--10----------|

+4 reply
gtr1960 10 Oct 03, 2006 10:14 AM

I agree this is the closest one on here to the way it's played

+2 reply
rafd02 195 Jun 10, 2007 07:19 AM

ya this is the best tab so far

guest
You may want to rate the tab now too:
select rating
Wanna post a correction for this tab? Suggest correction