Oops, an error
Loading. Please wait.
We have an official Swlabr tab made by UG professional guitarists. Check out the tab »
×
by Cream
7,212 views 15 this week
no commentswrite comment
1 2 3 4 5
1 last vote to show rating
add to favorites
×
Save as Personal and add changes to this tab that will be seen only by you. Learn more ›
×
You can save this tab as Personal to edit and correct it or add notes. All changes will be seen only by you. Learn more »
launch autoscroll
font size
0
reset
guitar tuner
edit
Autoscroll
slow
fast
+/-
esc
set tempo
stop
Difficulty
SWLABR

She Walks Like A Bearded Rainbow

Tab: (NOTE, bridge is just noodling around in scale)

Guitar intro:

Riff 2, guitar first time bass second

G-----------------------------|
D-----5-77-5------------------|
A--77--------7--7-5-7--7p5--5-|
E--------------------------7--|

Riff 1

G-----------------------------|
D-----------------7-5---------|
A-7-7----5-6-757--------------|
E-----77----------------------|

Riff 3

G---------------------------|
D----------------7-5--------|
A--7-6-5-------------7p5----|
E--------8-88-----------87--|

Riff 4 (partial riff 1)

G--------|
D--------|
A-7-7----|
E-----7--|

Riff 5
               (measure gets extended)
G-------------|-----------------------|------------|
D-------------|-7-5--------7-5---5----|-7-5--------|
A--7-6-5------|-----7-5--------7------|----7p5-----|
E--------8-88-|---------88---------88-|--------87--|


Riff 6 (Bridge part 1)   Riff 7 (Bridge part 2)

G---------6p4-6p4------|------------7-9--9p7-9p7---|
D------6----------6----|-------7-9---------------9-|
A--4-4-----------------|--7-7----------------------|
E----------------------|---------------------------|

Riff 8 (Bridge part 3)   Riff 9 (Bridge part 4)

G---------5p3-5p3------|------------2-4--4p2-4p2---|
D------5----------5----|-------2-4---------------4-|
A--3-3-----------------|--2-2----------------------|
E----------------------|---------------------------|

Structure:

2 (guitar-only) 2 (guitar+bass)

1 1 1 4 2 3 2
1 1 1 4 2 5 2

Bridge
6 6 7 7 8 8 9

Lead
1 1 1 1 1 4 2

Bridge
6 6 7 7 8 8 9

1 1 1 4 2 5(extended)

2 2(first half)

            
            
Suggest correction
Creating personal tab
Creating personal tab
You can edit any tab online and save it as your Personal.

You can edit, replace or remove any tab part or add personal notes – all changes will be seen only by you.

Personal tabs can be accessed anytime from any device, even offline.
Learn more »
Give kudos to tab author, rate the tab!
1 2 3 4 5
comments
print report bad tab
guest
Wanna post a correction for this tab? Suggest correction