Oops, an error
Loading. Please wait.

Tales Of Brave Ulysses Tab

version 1
version 1

Whole song

Interactive

39,043 views 24 this week
3 commentsread comments
1 2 3 4 5
x 8
add to favorites
launch autoscroll
font size
0
reset
how to read this tab
guitar tuner
Autoscroll
slow
fast
+/-
esc
set tempo
stop
Help us to improve Ultimate-Guitar.com Take our survey!
×
Author
-------------------------------------------------------------------------------
                     Tales of Brave Ulysses - Cream
-------------------------------------------------------------------------------
Tabbed by:Brendan O'Donoghue
Email: Telemarknato@yahoo.com

Tuning: Normal
For a strat with crybaby original go to the neck pickup for wah sound!!

  
E|---------------------------------------|
B|------------------------5--------------|
G|-5----5h7—7b----5---5-----5h7-----5h7--|
D|-5h7-------------5h7------------7------|
A|---------------------------------------|
E|---------------------------------------|
   /  \     - /      \ /\   /  \/      \
After that there is some weird stuff under the symbol roll, I can't figure it out.
Try playing something like that quietly.

E|----------------------------------------|
B|----------------------------------------|I will call that "the lick"
G|---7----7----5----5----4----4----3----3-|
D|---7----7----5----5----5----5----3----3-|
A|----------------------------------------|
E|----------------------------------------|

First verse wah patteren:
    /\/  /\/  /\/  /\/  /-/  /-/  /\e/ /\e/ 
    /\/  /\/  /\/  /\/  /\/  /\/  /\e/ /\e/*5
E|---9~---------------------------5-----------------------------------|
B|---8~---------5--------------------8s5------5-----------------------|
G|---9~-----------7--5—7p5h7b9-----------7b9----7—5b6-------5h7-7-----|
D|----------------------------------------------------7p5h------------|
A|--------------------------------------------------------------------|
E|--------------------------------------------------------------------|
      /\/\/\/\  /-\  / Wah with beat>>>>>>>>>>>>>>>>>>>>>>>>>>
E|-----------5--------------------------------------------------------|
B|---------5----7(8)-5-------5----------------------------------------|
G|---5-7b9--------------7b9----7(9)-7-5-7-5-----5---------------------|
D|-------------------------------------------7-----7-7----------------|
A|--------------------------------------------------------------------|
E|--------------------------------------------------------------------|
>>>>>>>>>>>>>>>>>>>>>>>>>>>>>>>>>>>>>>>>>>>>>>>>>>>>>>>>>>>>>>>>>>>>>>>
The lick 
-----7----7----5----5----54----54----3----3-------------------------
    /\/  /\/  /\/  /\/  /\/  /\/  /\e/ /\e/*4


E|-------------------------------10------------------------------|
B|--13---13----------------------13------------------------------|
G|--14---14--12--10—12b14--------14-----12-10-12----10-14--------|
D|--------------------------------------------------12-----------|
A|---------------------------------------------------------------|
E|---------------------------------------------------------------|
   / \   /\  /   \  /--\        /\e     / \/  /\    / - \e

E|-------10---------------------------------------10------------------|
B|----10----13-10------------------------------------13-10----10------|
G|-13-------------14-12-10-12--------10-12-12(14)----------12----12s10|
D|--------------------------------10----------------------------------|
A|--------------------------------------------------------------------|
E|--------------------------------------------------------------------|
    / -   \e / \   /\ /\ /\/\     /  ---------\    \ /\ /\ / \ /\ \- /
E|-----------------10----------------------|
B|--------------------13p10----10----------|
G|----12-----10-12----------12----10h12p10-|
D|-12----12--------------------------------|
A|-----------------------------------------|
E|-----------------------------------------|
    / \  /    /\ /\ \e \ /   / \  / ---- \

Final solo

E|-------------------------------------------------------------------|
B|-------------------10----------------------------------------------|
G|-7-7-7-7-7-7-7-7------12p10----10h12p10----10h12p10----10h12p10----|
D|----------------------------12----------12----------12----------12-|
A|-------------------------------------------------------------------|
E|-------------------------------------------------------------------|
   /\/\/\/\/\/\/\/  \  /   \/ /   /-----\ /  /-------\/  /------\ /  
E|-------------------------------------------------------------------|
B|-------------------------------------------------------------------|
G|-10-12p10-12p10----10h12p10----10h12p10----10h12p10---10h12p10-----|
D|----------------12----------12----------12---------------------12--|
A|-------------------------------------------------------------------|
E|-------------------------------------------------------------------|
    /  / \   / \  /  /-------\/  /-------\ / --------\   /------\ /
E|---------------------10---------------------------------------------|
B|------------------------13p10--------10-----------------------------|
G|------------------------------12b14-----12b14--12-10h12p10---10-12/14
D|-10h12p10----10h12/---------------------------------------12--------|
A|----------12--------------------------------------------------------|
E|--------------------------------------------------------------------|
    /-----\ /  / \    \e /---\  /---\ \e  /---\   / --------\ / \e

E|----14--------------------------------------10-------13----13-13-13-13-13-13-
B|------------------------------------------------15------15-15-15-15-15-15-15-
G|-14-----14-14-14-14\12-10h12p10----10h12/14----------------------------------
D|--------------------------------12-------------------------------------------
      /  /\ /\/ /\ /---\  /-----\ / /------\  \e /         /\ /\/\/\/\


E|-13----13-15b17--15-13h15p13-----13-15b17---13--15--13-------------13-|
B|----15------------------------15------------------------15-15-15-15---|
   /\ /  \  /---\  /  /--------\/  /  /--\    /\  /    \  /\ /\ /\ /\ 

/:\ well it gets harder and harder keep with those notes.
Wah heel to toe through bends slides and hammers pull-offs  check out my ASCII art
Suggest correction
comments
print report bad tab
3 comments total.
+1 reply
willwelsh816 296 Jun 07, 2008 08:15 PM

There is a Rythm guitar under the "lick" that goes:

--------------------------|
--------------------------|
--2--2--------------------|
--0--0--0--0--0--0--0--0--|
--------3--3--2--2--1--1--|
--------------------------|

0 reply
CAMBRIA678 10 Jul 23, 2008 04:29 PM

Damn...I wish i had a wah...it sounds like s#!t without it

0 reply
sebwbes 30 Dec 08, 2010 12:58 AM

well, ive got NO wah with my guitar. good tab and the other rythm willwelsh wrote works, think thats the bass guitar

good tab

guest
You may want to rate the tab now too:
select rating
Wanna post a correction for this tab? Suggest correction