Oops, an error
Loading. Please wait.

Tales Of Brave Ulysses bass

version 4
version 4

Whole song

Interactive

by Cream
9,540 views 6 this week
no commentswrite comment
1 2 3 4 5
x 10
add to favorites
×
Save as Personal and add changes to this tab that will be seen only by you. Learn more ›
×
You can save this tab as Personal to edit and correct it or add notes. All changes will be seen only by you. Learn more »
launch autoscroll
font size
0
reset
guitar tuner
backing track
0:00
0:00
edit
Autoscroll
slow
fast
+/-
esc
set tempo
stop
      :SONG: Tales of Brave Ulysses
      :BAND: Cream

   :TABBER: By Unicorn Death
   :TUNING: Standard (E A D G)

So I figured that all the other tabs are decent, but they really don't
outline Jack's bass fills and stuff. I guess I'm the one to do so.

   Intro
   |--------|-----------------------------|
   |---12---|:--12/10--10/9--9/8--10/12--:|   :-Repeat-----:
   |--------|:---------------------------:|   :-four times-:
   |--------|-----------------------------|

   Verse
   |---------------|-----------------|---------------|----------------|
   |---------------|-----------------|---------------|----------------|
   |---5-5--3-3-3--|--2-2--111-0-0---|---5-5--3-3-3--|---2-2--111-0---|
   |---------------|-----------------|---------------|----------------|


   |---------------|-----------------|---------------|----------------|
   |---------------|-----------------|---------------|----------------|
   |---5-5--3-3-3--|---2-2--111-0-0--|---5-5--3-3-3--|---2-2--111-0---|
   |---------------|-----------------|---------------|----------------|


   |---------------|-----------------|---------------|----------------|
   |---------------|-----------------|---------------|----------------|
   |---5--5--------|-------1-1-3-3---|---5-5--3-3-3--|----------------|
   |--------1--1---|--3-3------------|------------------3-3--5-5------|

   Solo 1                                               Verse 2         
   |-------------------------|--------------------------|-------------|
   |-------------------------|--------------------------|-------------|
   |--0--0--0--0--0--0--5-3--|--0--0--0--0--0--0--5--3--|--5-5--3-3-3-|
   |-------------------------|--------------------------|-------------|


   |----------------|--------------|----------------|-----------------|
   |----------------|--------------|----------------|-----------------|
   |---2-2--111-0---|--5-5--3-3-3--|---2-2--111-0---|---5--5----------|
   |----------------|--------------|----------------|--------1-1--3-3-|

                                      Solo 2
   |-------------------|--------------|-------------------------|
   |-------------------|--------------|-------------------------|
   |--1-1-3-3--5--5----|--------------|--0--0--0--0--0--0--5-3--|
   |----------------1--|--1-3--3-5-5--|-------------------------|

                              Intro 2
   |--------------------------|---------------------------------|
   |--------------------------|---12--12p10--10p9--9p8--10/12---|
   |--0--0--0--0--0--0--5--3--|---------------------------------|
   |--------------------------|---------------------------------|

                                     Verse 3
   |---------------------------------|--------------|-----------------|
   |---12--12p10--10p9--9p8--10/12---|--------------|-----------------|
   |---------------------------------|--5-5--3-3-3--|---2-2--111-0-----
   |---------------------------------|--------------|-----------------|


   |---------------|-----------------|---------------|----------------|
   |---------------|-----------------|---------------|----------------|
   |---5-5--3-3-3--|---2-2--111-0----|---5-5--3-3-3--|---2-2--111-0---|
   |---------------|-----------------|---------------|----------------|


   |---------------|-----------------|---------------|----------------|
   |---------------|-----------------|---------------|----------------|
   |---5--5--------|-------1-1-3-3---|---5--5--------|------1-1-3-3---|
   |--------1--1---|--3-3------------|--------1--1---|--3-3-----------|

   Solo 3
   |-------------------------|-------------------------|
   |-------------------------|-------------------------|
   |--5-5--3-3-3--222--1-0---|--5-5--3-3-3--222--1-0---|
   |-------------------------|-------------------------|

   Intro 3
   |----------------|----------------------------------|
   |--10/12--12/10--|--10/12--12/10--|--10/12--12/10---|
   |----------------|----------------|-----------------|
   |----------------|----------------|-----------------|

                                 Outro (Solo)
   |----------------|------------|---------------|--------------------|
   |--10/12--12/10--|--7/8--8/7--|---------------|--------------------|
   |----------------|------------|---5-5--3-3-3--|---2-2-2-2--1-1-3-3-|
   |----------------|------------|---------------|--------------------|


   |--------------|--------------------|-----------------|------------|
   |--------------|--------------------|-----------------|------------|
   |--5-5--3-3-3--|---2-2-2-2--1-1-3-3-|---5--5----------|--1-1-3-3---|
   |--------------|--------------------|--------1-1--3-3-|------------|


   |------------------|---------3p0---------|----------------|
   |------------3-----|-------------3p0h3---|--------3-------|
   |--5-5--3-3h5-5p3--|--2-2-1--------------|--5-5--5-5-4-3--|
   |------------------|---------------------|----------------|

                                Fade Out
   |---------3p0----------------------|---------3p0----------|
   |-------------3p0h3----------------|-------------3p0h3-0--|
   |--2-2-1------------5-5-2-3-4-5-5--|--3-3-2---------------|
   |----------------------------------|----------------------|


And when they play live, Jack fills in some of the 
verses with the same bass fill he uses for "White Room". 

            
            
Suggest correction
Creating personal tab
Creating personal tab
You can edit any tab online and save it as your Personal.

You can edit, replace or remove any tab part or add personal notes – all changes will be seen only by you.

Personal tabs can be accessed anytime from any device, even offline.
Learn more »
comments
print report bad tab
guest
You may want to rate the tab now too:
select rating
Wanna post a correction for this tab? Suggest correction