Oops, an error
Loading. Please wait.

Toad Tab

version 1
version 1

Whole song

Interactive

2,360 views 6 this week
no commentswrite comment
1 2 3 4 5
x 3
add to favorites
launch autoscroll
font size
0
reset
how to read this tab
guitar tuner
×
Best way to learn
"Toad"
Autoscroll
slow
fast
+/-
esc
set tempo
stop
Artist: Cream
Album: Fresh Cream
Song: Toad
Composer: Ginger Baker
Tabbed by: ecfanrm826
The tab is a little confusing but you'll get it if you listen to the song
The opening chord is an A Form E power Chord Which is X799XX
Next it's
E|-----------------------|
B|-------------------0---|
G|-2-0-----------0-2-----|
D|-----2-----0-2---------|
A|---------2-------------|
E|-----------------------|
Before the solos Guitar and drums it's
E----------|
B----------|
G----------|
D----------|
A-2-0------|
E-----3-0--|
the solo Clapton is playing with feedback the during parts


    ~~~  ~~~  ~~~                                                ~~~
E-------------------------------------------------------------------|
B-------------------------------------------------------------------|
G------------14--12-------------------------------------------------|
D-12---14------------14—12h14p12--12---------------------------14---|
A------------------------------------14------------------12-14------|
E-----------------------------------------15-12---15-12-------------|

The closing Chord is E7#9 Which is X7678X
| b  bend
| r  release
| /  slide up
| \  slide down
| h  hammer-on
| p  pull-off
| ~  vibrato
| +  harmonic
Suggest correction
Give kudos to tab author, rate the tab!
1 2 3 4 5
comments
print report bad tab
guest
You may want to rate the tab now too:
select rating
Wanna post a correction for this tab? Suggest correction