Oops, an error
Loading. Please wait.
We have Chord Pro version of White Room.
It's the closest thing you can get to the original song and it has interactive parts. Check out the tab »
×
by Cream
18,277 views 39 this week
no commentswrite comment
1 2 3 4 5
2 more votes to show rating
add to favorites
launch autoscroll
font size
0
reset
how to read this tab
guitar tuner
backing track
0:00
0:00
Autoscroll
slow
fast
+/-
esc
set tempo
stop
Author
This is the solo/outro to Cream's White Room. I think this is all correct.

e|------10--------------------10---------------10-------------------------|
B|--------13--------------------13----------------13----------------------|
G|12b--------12b---12(vibrato)-----13(vibrato)-------12b--12b--10--12-----|
D|--------------------------------------------------------------------12--|
A|------------------------------------------------------------------------|
E|------------------------------------------------------------------------|

e|------------2--2------------------------------|
B|------------3--3-------0-------3--------------|
G|10(vibrato)-2--2-------0-------0---3-----5----|
D|------------0--0-------x-----------3-----5----|
A|-----------------2--3--3--2--2-----1-----3--0-|
E|---------------------------------1----3-------|

e|------------------------------------------------------------------10----|
B|-------------------------------------------13b--13b--13b(vibrato)----13-|
G|10(vibrato)--12-10----10-12--10b--12-10---------------------------------|
D|-------------------12-------------------12------------------------------|
A|------------------------------------------------------------------------|
E|------------------------------------------------------------------------|

e|-----------------------|
B|-----------------------|
G|12b--12-10----10-12-14-|
D|-----------12----------|
A|-----------------------|
E|-----------------------|

e|------13------13-------13-------13-------13-------13-------13-------13-|
B|13-15---13-15----13-15----13-15----13-15----13-15----13-15----13-15----|
G|-----------------------------------------------------------------------|
D|-----------------------------------------------------------------------|
A|-----------------------------------------------------------------------|
E|-----------------------------------------------------------------------|

e|------13---------------------------------------------10-------|
B|13-15--------------------------------------------------13-----|
G|--------14-12--12-10------------------10---12-10-12b------12b-|
D|--------------------12-10--12(vibrato)---12-------------------|
A|--------------------------------------------------------------|
E|--------------------------------------------------------------|

e|-----------------------------------------------------------------|
B|-----------------------------------------------------------------|
G|12--10-12-10----10-12-10----10-12-10----10(vibrato)--------------|
D|-------------12----------12----------12-------------12-10--10-12-|
A|---------------------------------------------------------12------|
E|-----------------------------------------------------------------|

e|-------------------------------------------------------------|
B|---------------------------------13--13--10-13--10-13-10-13--|
G|10----12-10----------10----10--x-----------------------------|
D|---12-------12-10-12----12-----------------------------------|
A|-------------------------------------------------------------|
E|-------------------------------------------------------------|

e|10-----------------------10-----------------------------------|
B|---13-10-13--10-13-10-13---13-10---10--------------------10b--|
G|---------------------------------12---10-12-10b---------------|
D|------------------------------------------------10-12-10------|
A|--------------------------------------------------------------|
E|--------------------------------------------------------------|

e|-------------------------------------------------------------------------|
B|10-10-------------10-13--------------------------------------------------|
G|------12b(vibrato)------12--12b--10-12-10---10-12-12b--12-10---10-12-12b-|
D|------------------------------------------12-----------------12----------|
A|-------------------------------------------------------------------------|
E|-------------------------------------------------------------------------|

e|10----------------------------------10------------------------------|
B|--12-10-------------10----------------13--13(vibrato)-13-13-15b-15b-|
G|-------12b--12-10--------x-10-12-14---14--14----------14-14---------|
D|-----------------12----12-------------------------------------------|
A|--------------------------------------------------------------------|
E|--------------------------------------------------------------------|

e|--------------------------------------------13-----------------------|
B|15b-15b--15b-13-15-13-15--15(vibrato)-13-15--------------------------|
G|----------------------------------------------14-12-10-12-10---------|
D|------------------------------------------------------------12-10-12-|
A|---------------------------------------------------------------------|
E|---------------------------------------------------------------------|

e|---------------------------------10----13b--13--10-13-10--10-10--------|
B|-------------------15-15b---13b-----13------------------13------13-15b-|
G|10--12-10--------------------------------------------------------------|
D|--12------12-10-12-----------------------------------------------------|
A|-----------------------------------------------------------------------|
E|-----------------------------------------------------------------------|

e|10-----------------------------------------|
B|---13-10-----------------------------------|
G|--------12b-12b-10-12-10---------10--12-10-|
D|------------------------12-10-12---12------|
A|-------------------------------------------|
E|-------------------------------------------|

e|-------------------------------------------------------------------------|
B|-----------10b--------------10b-----------10b-----------10b----10--------|
G|--12b---------------12b-------------12b-----------14----------------12b--|
D|12-----------------------------------------------------------------------|
A|-------------------------------------------------------------------------|
E|-------------------------------------------------------------------------|

e|---------|
B|---------|
G|-----12b-|
D|---------|
A|---------|
E|---------|

Okay, for those of you who are wondering why all I tab are solo's. It's because the solo 
probably the best part of a song. But if you want the full song of this or another song 
will try to get it out.

guitarflare
Suggest correction
Give kudos to tab author, rate the tab!
1 2 3 4 5
comments
print report bad tab
guest
You may want to rate the tab now too:
select rating
Wanna post a correction for this tab? Suggest correction