Oops, an error
Loading. Please wait.
We have Chord Pro version of White Room.
It's the closest thing you can get to the original song and it has interactive parts. Check out the tab »
×
by Cream
21,456 views 9 this week
3 commentsread comments
1 2 3 4 5
x 10
add to favorites
launch autoscroll
font size
0
reset
how to read this tab
guitar tuner
backing track
0:00
0:00
Autoscroll
slow
fast
+/-
esc
set tempo
stop
Author
Difficulty
intermediate
-----------------------------------------------------------------
White Room - Cream
-----------------------------------------------------------------
Tabbed by:XrejectX
Email:

Tuning: standard

I started this out from right after the interlude. At 2:38 i believe it is, when this starts...

e|-------------------------14-------------------------14-------12--12------|
B|-13----------------------------------------------------------------------|
G|---12b-12-10h12p10---/14-14-10h12-10----------12h14---14--12---12--12h14-|
D|------------------12----------------12p10h12-----------------------------|
A|-------------------------------------------------------------------------|
E|-------------------------------------------------------------------------|

e|--14--15p14-15p14------------------------------17---------------------|
B|------------------15~---------15-15~--15-15-15----15---17b------------|
G|-(14)------------------\5/--16----------------------------------------|
D|----------------------------------------------------------------------|
A|----------------------------------------------------------------------|
E|----------------------------------------------------------------------|

e|------------17---------------------------------------------------|
B|--17-17b-17----17b-17-15~---15-18p15--18p15--18p15--18p15--18p15--18p15--|
G|--------------------------16--------17-----17-----17-----17-----17-----17|
D|-------------------------------------------------------------------------|
A|-------------------------------------------------------------------------|
E|-------------------------------------------------------------------------|

e|-------------------------------------------------------------------------|
B|-18p15--18p15--18p15-15-15~----15-15-15~----15-15----15-15----15-15------|
G|------17-----17-------------/16----------/16------/16------/16------/16--|
D|-------------------------------------------------------------------------|
A|-------------------------------------------------------------------------|
E|-------------------------------------------------------------------------|

e|-----------17----------17b-17-17----17--------------------------17-------|
B|-15-15-17b---15--15-------------------17b-17-15---15-15-15~-17b---17b-17-|
G|---------------16----16----------0-------------16------------------------|
D|-------------------------------------------------------------------------|
A|-------------------------------------------------------------------------|
E|-------------------------------------------------------------------------|

e|---------------------------------------------------------------|
B|-15-17----15~--------------------------------------------------|
G|-------16------------------------------------------------------|
D|---------------------------------------------------------------|
A|---------------------------------------------------------------|
E|---------------------------------------------------------------|

following, is the interlude again and then i think another part then this, the outro solo...

e|-----10-----------10----------10-----------10-------------------------|
B|--------13-----------13----------13-----------13----------------------|
G|-12b------12~----------12~----------12b~--------12b-12-10-12---10~----|
D|-------------------------------------------------------------12-------|
A|----------------------------------------------------------------------|
E|----------------------------------------------------------------------|

e|--------------------------------------------10-------------------------|
B|-------------------------------13b-13b-13b~---13-----------------------|
G|-10~-12-10--10-12-10b--12p10---------------------12b-12-10--10h12/14~--|
D|----------12-----------------12---------------------------12-----------|
A|-----------------------------------------------------------------------|
E|-----------------------------------------------------------------------|

e|------13-----13-----13-----13-----13-----13-----13-----13-----13---------|
B|-13h15--13h15--13h15--13h15--13h15--13h15--13h15--13h15--13h15-----------|
G|----------------------------------------------------------------14p12-10-|
D|-------------------------------------------------------------------------|
A|-------------------------------------------------------------------------|
E|-------------------------------------------------------------------------|

e|------------------------10-----------------------------------------------|
B|--------------------------13---------------------------------------------|
G|----------10--12-10-12b------12b-12-10h12p10---10h12p10---10h12p10--10~--|
D|-12p10-12~--12------------------------------12---------12---------12-----|
A|-------------------------------------------------------------------------|
E|-------------------------------------------------------------------------|

e|------------------------------------------------------------------10----|
B|--------------------------------------13-(13)p10-13p10-13p10-13-10------|
G|--------------10--12-10---------10--10----------------------------------|
D|-12p10---10h12--12-----12p10-12---12------------------------------------|
A|------12----------------------------------------------------------------|
E|------------------------------------------------------------------------|

e|-----------------------10-----------------------------------------------|
B|-13-10-13p10-13p10-13----13p10--10----------------10b---(10)--10--------|
G|------------------------------12--10h12p10----------------------12b~----|
D|------------------------------------------12p10h12----------------------|
A|------------------------------------------------------------------------|
E|------------------------------------------------------------------------|

e|--------------------------------10-----------------------------------|
B|-------------10--------------------13-10-----------------------13-13-|
G|-12p10--10-12---12-10--10-12b-----------12b-12-10--12--10h12/14---14-|
D|------12-------------12--------------------------12--12--------------|
A|---------------------------------------------------------------------|
E|---------------------------------------------------------------------|

e|-----------------------------------------------------13---------|
B|-13---13--13-15b---15b--15-15-13h15p15-15-15~---13h15-----------|
G|-14---14--14--------------------------------------------14------|
D|----------------------------------------------------------------|
A|----------------------------------------------------------------|
E|----------------------------------------------------------------|

e|--------------------------------------------------10---13b-13-10h13p10---|
B|---------------------------------------13-13---13---13----------------13-|
G|-12 10-12p10--------10--12p10--------------------------------------------|
D|------------12p10-12--12-----12p10-12------------------------------------|
A|-------------------------------------------------------------------------|
E|-------------------------------------------------------------------------|

e|-10-10-----------10----------------------------------------------|
B|-------13-13b~-----13-10-----------------------------------------|
G|------------------------12b-(12)p10-12p10---------10--12p10------|
D|-----------------------------------------12p10-12---12-----------|
A|-----------------------------------------------------------------|
E|-----------------------------------------------------------------|

e|--------------------------------------------------------|
B|--------------------------------------------------------|
G|-12b--14b--12b--14b--12b--14b-12b--14b------------------|
D|--------------------------------------------------------|
A|--------------------------------------------------------|
E|--------------------------------------------------------|
                       -THE END-
Well fellas there yah go, the solo for white room...


| /  slide up
| \  slide down
| h  hammer-on
| p  pull-off
| ~  vibrato
| +  harmonic
| x  Mute note
Suggest correction
comments
print report bad tab
3 comments total.
0 reply
JI-HALL 445 Apr 10, 2008 07:49 AM

brillient tab man

0 reply
CJRocker 140 Aug 22, 2008 10:30 AM

Good tab, but it could of used some lyrics over the tab to help keep track of where you are. Otherwise, nice job.

+1 reply
TheWho2 500 Apr 10, 2009 03:43 PM

its a solo tab man... what lyrics.... unless u mean before and after the fills

guest
You may want to rate the tab now too:
select rating
Wanna post a correction for this tab? Suggest correction