Oops, an error
Loading. Please wait.

White Room Bass Tab

version 2
version 2

Whole song

Interactive

18,114 views 42 this week
no commentswrite comment
1 2 3 4 5
excellent!
x 13
add to favorites
launch autoscroll
font size
0
reset
guitar tuner
Autoscroll
slow
fast
+/-
esc
set tempo
stop
Help us to improve Ultimate-Guitar.com Take our survey!
×
Transcribed by Brian Schretzmann 


                           White Room
                            by Cream
                      (off Wheels of Fire)

NOTE: For convience sake, I marked some areas with 3 or 4 quarter 
      notes in a row.  These should actually be varied with 
      stoccato quarter notes - listen to what Jack Bruce does to
      hear what I mean.

INTRO
      w+q   w+q   w+q   w+q         h+e q+e
+---|-----|-----|-----|------||---|---------|
|5:-|-----|-----|-----|-----*||4:-|-----R---|
|4:-|-10--|-8---|-----|-----*||4:-|---------|
+---|-----|-----|-10--|-8----||---|-5-------|

VERSE 1
  q q e e q   q q q q   q+e e e e e e   q e e q q   q q e e q   q q q q
|-----------|---------|---------------|-----------|-----------|---------|
|-----------|---------|---------------|-----------|-----------|---------|
|-5-5-3-3-3-|-2-2-1-3-|-5-------------|-----0-1-3-|-5-5-3-3-3-|-2-2-1-3-|
|-----------|---------|-----0-1-0-1-2-|-3-3-------|-----------|---------|

  q+e e e e e e   q e e q q   q q q q   q q q q   q+e s s e e e e
|---------------|-----------|---------|---------|-----------------|
|---------------|-----------|---------|---------|-----R-2-3-2-3-4-|
|-5-------------|-----0-1-3-|-5-5-3-3-|-2-2-1-3-|-5---------------|
|-----0-1-0-1-2-|-3-3-------|---------|---------|-----------------|

  q e e q q   q q q q   q q q q   q+e s s e e e e   q e e e e e e
|-----------|---------|---------|-----------------|---------------|
|-5---------|---------|---------|-------2-3-2-3-4-|-5-------------|
|-----0-1-3-|-5-5-3-3-|-2-2-1-3-|-5---5-----------|-----0-1-0-1-2-|
|---3-------|---------|---------|-----------------|---3-----------|

BRIDGE
  q+e e h   q+e e h   q+e e h   q+e e e e e e   q+e e h   q+e e q+e e
|---------|---------|---------|---------------|---------|-------------|
|---------|---------|---------|-------4-2-----|---------|-------------|
|-3---3-3-|---------|-1---1-1-|-0---0-----4-0-|-3---3-3-|-----------0-|
|---------|-3---3-3-|---------|---------------|---------|-3---3-3-----|

  q e e e e e e   q+e q e e e   q+e q q e   e H+e
|---------------|-------------|-----------|-------|
|---R---R-------|-------------|-----------|---R---|
|-1---1---0-1-2-|-3---3-2-3-4-|-5---5-5-5-|-5-----|
|---------------|-------------|-----------|-------|

VERSE 2
  q q q q   q q q q   q+e e e e e e   q e e q q   q q q q   q q q q
|---------|---------|---------------|-----------|---------|---------|
|---------|---------|---------------|-----------|---------|---------|
|-5-5-3-3-|-2-2-1-3-|-5-------------|-----0-1-3-|-5-5-3-3-|-2-2-1-3-|
|---------|---------|-----0-1-0-1-2-|-3-3-------|---------|---------|

  q+e e e e e e   e e e e q q   q q q q   q q q q   q+e s s e e s s e
|---------------|-------------|---------|---------|-------------------|
|---------------|-------------|---------|---------|-------2-3-2-3-2---|
|-5-------------|-------0-1-3-|-5-5-3-3-|-2-2-1-3-|-5---5-----------5-|
|-----0-1-0-1-2-|-3-2-3-------|---------|---------|-------------------|

  q e e q q   q q q q   q q q q   q q e e e e   e e e e e e e e
|-----------|---------|---------|-------------|-----------------|
|-5---------|---------|---------|-------------|-----------------|
|-----0-1-3-|-5-5-3-3-|-2-2-1-3-|-5-----------|-------0-1-0-1-2-|
|---3-------|---------|---------|---0-1-0-1-2-|-3-2-3-----------|

BRIDGE
  q+e q q e   q+e e q+e   q+e e h   q q e e e e   q+e s s h   q+e e h
|-----------|-----------|---------|-------------|-----------|---------|
|-----------|-----------|---------|-----4-2-----|-----------|---------|
|-3---3-3-3-|-----------|-1---1-1-|-0-0-----4-0-|-3---3-3-3-|---------|
|-----------|-3---3-3---|---------|-------------|-----------|-3---3-3-|

  q+e q q e   e e e e e e q  q+e  q q+e         w+q   w+q   w+q   w+q
|-----------|---------------|-----------||---|-------|-----|-----|-----||
|-----------|-----R---------|-----------||5:-|*------|-----|-----|----*||
|-1---1-1-2-|-3-3---3-2-3-4-|-5---5-5---||4:-|*-10---|-8---|-----|----*||
|-----------|---------------|-----------||---|-------|-----|-10--|-8---||

                VERSE 3
       h+e q+e    q q q q   q q q q   q+e s s s s s s s s s s   q e e q q
||---|---------||---------|---------|-------------------------|-----------|
||4:-|-----R---||---------|---------|-------2-3-2-3-2---2-3-4-|-5---------|
||4:-|---------||-5-5-3-3-|-2-2-1-3-|-5---5-----------5-------|-----0-1-3-|
||---|-5-------||---------|---------|-------------------------|---3-------|

  q q q q   q q q q   q+e s s s s s s s s s s   q e e q q   q q q q
|---------|---------|-------------------------|-----------|---------|
|---------|---------|-------2-3-2-3-2---2-3-4-|-5---------|---------|
|-5-5-3-3-|-2-2-1-3-|-5---5-----------5-------|-----0-1-3-|-5-5-3-3-|
|---------|---------|-------------------------|---3-------|---------|

  q q q q   q+e e e e e e   q e e q q   q q q q   q q q q
|---------|---------------|-----------|---------|---------|
|---------|---------------|-----------|---------|---------|
|-2-2-1-3-|-5-------------|-----0-1-3-|-5-5-3-3-|-2-2-1-3-|
|---------|-----0-1-0-1-2-|-3-3-------|---------|---------|

  q+e s s s s s s s s s s   q q q q
|-------------------------|---------||
|-------2-3-2-3-2-3-2-----|---------||
|-5---5---------------5-3-|-2-2-1-0-||
|-------------------------|---------||

BRIDGE
  q+e e h   e q e h   q+e e q e e   e q q e e e   q+e e h   q+e e h  
|---------|---------|-------------|-------------|---------|---------|
|---------|---------|---------R---|-----4-2-----|---------|---------|
|-3---3-3-|---------|-1---1-1---1-|-0-0-----4-0-|-3---3-3-|---------|
|---------|-3-3-3-3-|-------------|-------------|---------|-3---3-3-|

  q+e e e e e e   q+e e e e e e   q+e q q e         w+q   w+q   w+q   w+q
|---------------|---------------|-----------||---|------|-----|-----|-----||
|---------------|---------------|-----7-----||5:-|*-----|-----|-----|----*||
|-1---1-1-0-1-2-|-3---3-3-2-3-4-|-5-------5-||4:-|*-10--|-8---|-----|----*||
|---------------|---------------|-------5---||---|------|-----|-10--|-8---||

       w+q+  w+q+       h
||---|-----|-----||---|---|
||4:-|-----|-----||2:-|---|
||4:-|-----|-----||4:-|---|
||---|-5---|-5---||---|-5-|

OUTRO (GUITAR SOLO)
       q q q q   q q q q   q+e s s s s s s e e   q q q q
||---|---------|---------|---------------------|---------|
||4:-|---------|---------|-------2-3-2-3-2-----|---------|
||4:-|-5-5-3-3-|-2-2-1-3-|-5---5-----------5-3-|-2-2-1-3-|
||---|---------|---------|---------------------|---------|

  q q q q   q q q q   h s s s s s s s s   q q q q   q q q q
|---------|---------|-------------------|---------|---------|
|---------|---------|-----2-3-2-3-2-----|---------|---------|
|-5-5-3-3-|-2-2-1-3-|-5-5-----------5-3-|-2-2-1-3-|-5-5-3-3-|
|---------|---------|-------------------|---------|---------|

  q q q s s s s  q q s s s s s s e   q q q q   q q q q   q q q q
|---4-3-2-0-----|-------------------|---------|---------|---------|
|-----------3-2-|---------2-3-2-----|---------|---------|---------|
|-2-------------|-5-5-2-5-------5-3-|-2-2-1-3-|-5-5-3-3-|-2-2-1-3-|
|---------------|-------------------|---------|---------|---------|

  q+e s s s s e s s s s   e q e q q   q+e s s s s e s s s s   e q e q q
|-----------------------|-----------|-----------------------|-----------|
|-------2-3-2-----2-3-4-|-5---------|-------2-3-2-----2-3-4-|-5---------|
|-5---5-------5-5-------|-------1-3-|-5---5-------5-5-------|-------1-3-|
|-----------------------|---3-5-----|-----------------------|---3-5-----|

  q+e s s s s e s s s s   e q e q q   q+e s s e e s s e   e q e e e e e
|-----------------------|-----------|-------------------|---------------|
|-------2-3-2-----2-3-4-|-5---------|-------2-3-2-3-2---|-----------0-3-|
|-5---5-------5-5-------|-------1-3-|-5---5-----------5-|-----0-1-3-----|
|-----------------------|---3-5-----|-------------------|-3-3-----------|

                                  REPEAT AND FADE
  q e e e e e e   e q e e e e e     e q e e e e e   e q e e e e e
|---------------|---------------||----------------|----------------||
|-----2-3-2-3-4-|-5---------0-2-||*-3---2-3-2-3-4-|-5---------0-2-*||
|-5-5-----------|-----0-1-3-----||*---5-----------|-----0-1-3-----*||
|---------------|---3-----------||----------------|---3------------||
Suggest correction
What's this?
You can suggest a correction to this tab. Community and Mods will review your correction and vote to approve or reject it.
comments
print report bad tab
guest
You may want to rate the tab now too:
select rating
Please do not post tabs as comments. Select "correction" instead!