Oops, an error
Loading. Please wait.

White Room Bass Tab

version 2
version 2

Whole song

Interactive

19,320 views 54 this week
no commentswrite comment
1 2 3 4 5
x 15
add to favorites
launch autoscroll
font size
0
reset
guitar tuner
×
Best way to learn
"White Room"
Autoscroll
slow
fast
+/-
esc
set tempo
stop
White Room
                            by Cream
                      (off Wheels of Fire)

NOTE: For convience sake, I marked some areas with 3 or 4 quarter 
      notes in a row.  These should actually be varied with 
      stoccato quarter notes - listen to what Jack Bruce does to
      hear what I mean.

 [Intro]
       w+q   w+q   w+q   w+q         h+e q+e
G|---|-----|-----|-----|------||---|---------|
D|5:-|-----|-----|-----|-----*||4:-|-----R---|
A|4:-|-10--|-8---|-----|-----*||4:-|---------|
E|---|-----|-----|-10--|-8----||---|-5-------|

 [Verse 1]
   q q e e q   q q q q   q+e e e e e e   q e e q q   q q e e q   q q q q
G|-----------|---------|---------------|-----------|-----------|---------|
D|-----------|---------|---------------|-----------|-----------|---------|
A|-5-5-3-3-3-|-2-2-1-3-|-5-------------|-----0-1-3-|-5-5-3-3-3-|-2-2-1-3-|
E|-----------|---------|-----0-1-0-1-2-|-3-3-------|-----------|---------|

   q+e e e e e e   q e e q q   q q q q   q q q q   q+e s s e e e e
G|---------------|-----------|---------|---------|-----------------|
D|---------------|-----------|---------|---------|-----R-2-3-2-3-4-|
A|-5-------------|-----0-1-3-|-5-5-3-3-|-2-2-1-3-|-5---------------|
E|-----0-1-0-1-2-|-3-3-------|---------|---------|-----------------|

   q e e q q   q q q q   q q q q   q+e s s e e e e   q e e e e e e
G|-----------|---------|---------|-----------------|---------------|
D|-5---------|---------|---------|-------2-3-2-3-4-|-5-------------|
A|-----0-1-3-|-5-5-3-3-|-2-2-1-3-|-5---5-----------|-----0-1-0-1-2-|
E|---3-------|---------|---------|-----------------|---3-----------|

 [Bridge]
   q+e e h   q+e e h   q+e e h   q+e e e e e e   q+e e h   q+e e q+e e
G|---------|---------|---------|---------------|---------|-------------|
D|---------|---------|---------|-------4-2-----|---------|-------------|
A|-3---3-3-|---------|-1---1-1-|-0---0-----4-0-|-3---3-3-|-----------0-|
E|---------|-3---3-3-|---------|---------------|---------|-3---3-3-----|

   q e e e e e e   q+e q e e e   q+e q q e   e H+e
G|---------------|-------------|-----------|-------|
D|---R---R-------|-------------|-----------|---R---|
A|-1---1---0-1-2-|-3---3-2-3-4-|-5---5-5-5-|-5-----|
E|---------------|-------------|-----------|-------|

 [Verse 2]
   q q q q   q q q q   q+e e e e e e   q e e q q   q q q q   q q q q
G|---------|---------|---------------|-----------|---------|---------|
D|---------|---------|---------------|-----------|---------|---------|
A|-5-5-3-3-|-2-2-1-3-|-5-------------|-----0-1-3-|-5-5-3-3-|-2-2-1-3-|
E|---------|---------|-----0-1-0-1-2-|-3-3-------|---------|---------|

   q+e e e e e e   e e e e q q   q q q q   q q q q   q+e s s e e s s e
G|---------------|-------------|---------|---------|-------------------|
D|---------------|-------------|---------|---------|-------2-3-2-3-2---|
A|-5-------------|-------0-1-3-|-5-5-3-3-|-2-2-1-3-|-5---5-----------5-|
E|-----0-1-0-1-2-|-3-2-3-------|---------|---------|-------------------|

   q e e q q   q q q q   q q q q   q q e e e e   e e e e e e e e
G|-----------|---------|---------|-------------|-----------------|
D|-5---------|---------|---------|-------------|-----------------|
A|-----0-1-3-|-5-5-3-3-|-2-2-1-3-|-5-----------|-------0-1-0-1-2-|
E|---3-------|---------|---------|---0-1-0-1-2-|-3-2-3-----------|

 [Bridge]
   q+e q q e   q+e e q+e   q+e e h   q q e e e e   q+e s s h   q+e e h
G|-----------|-----------|---------|-------------|-----------|---------|
D|-----------|-----------|---------|-----4-2-----|-----------|---------|
A|-3---3-3-3-|-----------|-1---1-1-|-0-0-----4-0-|-3---3-3-3-|---------|
E|-----------|-3---3-3---|---------|-------------|-----------|-3---3-3-|

   q+e q q e   e e e e e e q  q+e  q q+e         w+q   w+q   w+q   w+q
G|-----------|---------------|-----------||---|-------|-----|-----|-----||
D|-----------|-----R---------|-----------||5:-|*------|-----|-----|----*||
A|-1---1-1-2-|-3-3---3-2-3-4-|-5---5-5---||4:-|*-10---|-8---|-----|----*||
E|-----------|---------------|-----------||---|-------|-----|-10--|-8---||

 [Verse 3]
        h+e q+e    q q q q   q q q q   q+e s s s s s s s s s s   q e e q q
G||---|---------||---------|---------|-------------------------|-----------|
D||4:-|-----R---||---------|---------|-------2-3-2-3-2---2-3-4-|-5---------|
A||4:-|---------||-5-5-3-3-|-2-2-1-3-|-5---5-----------5-------|-----0-1-3-|
E||---|-5-------||---------|---------|-------------------------|---3-------|

   q q q q   q q q q   q+e s s s s s s s s s s   q e e q q   q q q q
G|---------|---------|-------------------------|-----------|---------|
D|---------|---------|-------2-3-2-3-2---2-3-4-|-5---------|---------|
A|-5-5-3-3-|-2-2-1-3-|-5---5-----------5-------|-----0-1-3-|-5-5-3-3-|
E|---------|---------|-------------------------|---3-------|---------|

   q q q q   q+e e e e e e   q e e q q   q q q q   q q q q
G|---------|---------------|-----------|---------|---------|
D|---------|---------------|-----------|---------|---------|
A|-2-2-1-3-|-5-------------|-----0-1-3-|-5-5-3-3-|-2-2-1-3-|
E|---------|-----0-1-0-1-2-|-3-3-------|---------|---------|

   q+e s s s s s s s s s s   q q q q
G|-------------------------|---------||
D|-------2-3-2-3-2-3-2-----|---------||
A|-5---5---------------5-3-|-2-2-1-0-||
E|-------------------------|---------||

 [Bridge]
   q+e e h   e q e h   q+e e q e e   e q q e e e   q+e e h   q+e e h  
G|---------|---------|-------------|-------------|---------|---------|
D|---------|---------|---------R---|-----4-2-----|---------|---------|
A|-3---3-3-|---------|-1---1-1---1-|-0-0-----4-0-|-3---3-3-|---------|
E|---------|-3-3-3-3-|-------------|-------------|---------|-3---3-3-|

   q+e e e e e e   q+e e e e e e   q+e q q e         w+q   w+q   w+q   w+q
G|---------------|---------------|-----------||---|------|-----|-----|-----||
D|---------------|---------------|-----7-----||5:-|*-----|-----|-----|----*||
A|-1---1-1-0-1-2-|-3---3-3-2-3-4-|-5-------5-||4:-|*-10--|-8---|-----|----*||
E|---------------|---------------|-------5---||---|------|-----|-10--|-8---||

        w+q+  w+q+       h
G||---|-----|-----||---|---|
D||4:-|-----|-----||2:-|---|
A||4:-|-----|-----||4:-|---|
E||---|-5---|-5---||---|-5-|

 [OUTRO] (GUITAR SOLO)
        q q q q   q q q q   q+e s s s s s s e e   q q q q
G||---|---------|---------|---------------------|---------|
D||4:-|---------|---------|-------2-3-2-3-2-----|---------|
A||4:-|-5-5-3-3-|-2-2-1-3-|-5---5-----------5-3-|-2-2-1-3-|
E||---|---------|---------|---------------------|---------|

   q q q q   q q q q   h s s s s s s s s   q q q q   q q q q
G|---------|---------|-------------------|---------|---------|
D|---------|---------|-----2-3-2-3-2-----|---------|---------|
A|-5-5-3-3-|-2-2-1-3-|-5-5-----------5-3-|-2-2-1-3-|-5-5-3-3-|
E|---------|---------|-------------------|---------|---------|

   q q q s s s s  q q s s s s s s e   q q q q   q q q q   q q q q
G|---4-3-2-0-----|-------------------|---------|---------|---------|
D|-----------3-2-|---------2-3-2-----|---------|---------|---------|
A|-2-------------|-5-5-2-5-------5-3-|-2-2-1-3-|-5-5-3-3-|-2-2-1-3-|
E|---------------|-------------------|---------|---------|---------|

   q+e s s s s e s s s s   e q e q q   q+e s s s s e s s s s   e q e q q
G|-----------------------|-----------|-----------------------|-----------|
D|-------2-3-2-----2-3-4-|-5---------|-------2-3-2-----2-3-4-|-5---------|
A|-5---5-------5-5-------|-------1-3-|-5---5-------5-5-------|-------1-3-|
E|-----------------------|---3-5-----|-----------------------|---3-5-----|

   q+e s s s s e s s s s   e q e q q   q+e s s e e s s e   e q e e e e e
G|-----------------------|-----------|-------------------|---------------|
D|-------2-3-2-----2-3-4-|-5---------|-------2-3-2-3-2---|-----------0-3-|
A|-5---5-------5-5-------|-------1-3-|-5---5-----------5-|-----0-1-3-----|
E|-----------------------|---3-5-----|-------------------|-3-3-----------|

                                   REPEAT AND FADE
   q e e e e e e   e q e e e e e     e q e e e e e   e q e e e e e
G|---------------|---------------||----------------|----------------||
D|-----2-3-2-3-4-|-5---------0-2-||*-3---2-3-2-3-4-|-5---------0-2-*||
A|-5-5-----------|-----0-1-3-----||*---5-----------|-----0-1-3-----*||
E|---------------|---3-----------||----------------|---3------------||



************************************

| s  Slap

************************************
Suggest correction
comments
print report bad tab
guest
You may want to rate the tab now too:
select rating
Wanna post a correction for this tab? Suggest correction