Oops, an error
Loading. Please wait.

Making Time Tab

12,918 views 12 this week
2 commentsread comments
1 2 3 4 5
excellent!
x 6
add to favorites
launch autoscroll
font size
0
reset
how to read this tab
guitar tuner
Autoscroll
slow
fast
+/-
esc
set tempo
stop
Help us to improve Ultimate-Guitar.com Take our survey!
×
Author
Mikhailo 35,480
Making Time - Creation

Intro and Verse:

e-|-2-2--------------------------|-
B-|-3-3--2-----------------------|-
G-|-2-2--2-2---------------------|-
D-|-0-0--2-2--2--2-2--2--2-2--2--|-
A-|------0-x--2--2-2--2--2-2--2--|-
E-|--------3--0--0-0--0--0-0--0--|-
                   Making time...

e-|----------------------|-
B-|----------------------|-
G-|-2-2-2-2-2--2-2-2-2---|-
D-|-2-2-2-2-2--2-2-2-2---|-
A-|-0-0-x-0-0--x-0-x-0---|- (x2)
E-|-----3------3---3-----|-

Chorus:

e-|-3---------2------------------3------2-------------------------|-
B-|-3---------3-------2-2--------3------3-----------2-------------|-
G-|-0---------2-------2-2---2----0------2-----------2----2---2----|-
D-|-0---------0-------2-2---2----0------0-----------2----2---2----|-
A-|-x-----------------0-0---x----x------------------0----x---0----|-
E-|-3-----------------------3----3-----------------------3--------|-
    Why do we have to carry on,  Always singing the same old song

e-|---------------------------------------|-
B-|---------------------------------------|-
G-|----2----2---2----------2----2---2-----|-
D-|----2----2---2----------2----2---2-----|-
A-|----0----x---0----------0----x---0-----|-
E-|---------3-------------------3---------|-
   The same old song,  the same old song

(repeat verse and chorus)

solo-
    E   D   E                 E   D   E 
e-|-------------------------|--------------------------------|-
B-|-------------------------|--------------------------------|-
G-|-9~--7~--9^(11)-9^p7---7-|-9~--7~--9^(11)-9^(11)-9p7---7--|-
D-|-9~--7~--------------9---|-9~--7~--------------------9----|-
A-|-7~--5~------------------|-7~--5~-------------------------|-
E-|-------------------------|--------------------------------|-

Violin Bow...
e-|---------------------------------|-
B-|---------------------------------|-
G-|--6~---6---6---6---6/-8--8--8--8-|-
D-|--7~---7---7---7---7/-9--9--9--9-|-
A-|--7~---7---7---7---7/-9--9--9--9-|-
E-|--5~---5---5---5---5/-7--7--7--7-|-

Last Verse:        Chorus:
e-|--------------|-------------------------------------------------------------
B-|--------------|-------------------------------------------------------------
G-|-1-1--4-4--3--|-2---------1-------4---------2------1-----------4----4---4---
D-|-2-2--4-4--4--|-2---------2-------4---------2------2-----------4----4---4---
A-|-2-2--2-0--4--|-0---------2-------2---------0------2-----------2----0---2---
E-|-0-0-------2--|-----------0------------------------0------------------------
                   why do we have to carry on, always singing the same old song

e-------------------|-------------------
B-------------------|-------------------
G-----4----4---4----|-----4----4---4----
D-----4----4---4----|-----4----4---4----
A-----2----0---2----|-----2----0---2----
E-------------------|-------------------
  the same old song,  the same old song

pre-chorus:
e-|---------------------|-
B-|---------------------|-
G-|--4-4-4-4-4-4-4-4----|-
D-|--4-4-4-4-4-4-4-4----|-
A-|--2-2-0-2-2-0-2-0----|-
E-|---------------------|-

Ending:
e-|--------------|-------------|----------(2)--|-
B-|--------------|-------------|----------(2)--|-
G-|--------4-----|-------4-----|--------4-(3)--|-
D-|-2~-----4--4--|--2~---4--4--|--2~----4--4---|-
A-|-2~-----2--4--|--2~---2--4--|--2~----2--4---|-
E-|-0~--------2--|--0~------2--|--0~-------2---|-
                                           *let it ring
Suggest correction new What's this?
You can suggest a correction to this tab. Community and Mods will review your correction and vote to approve or reject it.
comments
print report bad tab
2 comments total.
0 reply
Arthur_Jayz-G! 443 wrote on December 27 2007, 02:33 pm

Very Nice tab of a lost classic! time to get a violin bow me thinks!

0 reply
TiddlesTheGiant 84 wrote on September 8 2013, 05:43 pm

i first discovered this song in the film Rushmore, absolutely amazing, the song and the film

guest
You may want to rate the tab now too:
select rating
Please do not post tabs as comments. Select "correction" instead!