Oops, an error
Loading. Please wait.

Buried Alive intro tab

version 1
version 1

Intro

Whole song

Interactive

1,683 views 3 this week
3 commentsread comments
1 2 3 4 5
3 more votes to show rating
add to favorites
×
Save as Personal and add changes to this tab that will be seen only by you. Learn more ›
×
You can save this tab as Personal to edit and correct it or add notes. All changes will be seen only by you. Learn more »
launch autoscroll
font size
0
reset
how to read this tab
guitar tuner
edit
Autoscroll
slow
fast
+/-
esc
set tempo
stop
Band: Creature Feature
Song: Buried Alive
Tabbed By: Antonio LM Ortega

Enjoy, total credit to Chris for helping me figure this out.

Intro Part 1:
E|----11-----------13--------------------------------------------|
B|---------------------------------------------------------------|
G|-----------12-13--------12/8-----------------------------------|
D|--10--10------------13--------10--10p9h10h12/13----------------|
A|---------------------------------------------------------------|
E|---------------------------------------------------------------|


E|---------------------------------------------------------------|
B|---------------------------------------------------------------|
G|---12------13--13----------------------------------------------|
D|-----------------------------------------10--------------------|
A|-10--10--11--11------8h10p8/6h8p6------------------------------|
E|---------------------------------8---8-11----------------------|

Intro Part 2:
E|---------------------------------------------------------------|
B|---------------------------------------------------------------|
G|-------12-------------10-11----------12-------------10h11p10---|
D|-10-10----10----13-13----------10-10----10----13-13------------|
A|---------------------------------------------------------------|
E|---------------------------------------------------------------|
Suggest correction
Creating personal tab
Creating personal tab
You can edit any tab online and save it as your Personal.

You can edit, replace or remove any tab part or add personal notes – all changes will be seen only by you.

Personal tabs can be accessed anytime from any device, even offline.
Learn more »
Give kudos to tab author, rate the tab!
1 2 3 4 5
comments
print report bad tab
3 comments total.
+1 reply
TheAddict 72 Dec 03, 2009 07:16 AM

Dude, that's so much better than that other tab.
listen, I'm collecting all the parts and riffs I find right, the way I will do it will be almost 100% correct because it's going to be put in guitar pro, so no one can compain about rythm etc..
so far it's :

|----11-------------------------------------------
|-------------------------------------------------
|-----------12-13--------12/8---------------------
|--10--10---------13--13----------10p9h10h12/13---
|-------------------------------------------------
|-------------------------------------------------

I didn't really understand what you wrote here, but after this comes part 2.
part 2 is :

|-------------------------------------------------
|-----8---4-4-6-7-----8---4-4-6v------------------
|-5-5---5---------5-5---5-------------------------
|-------------------------------------------------
|-------------------------------------------------
|-------------------------------------------------

guest
You may want to rate the tab now too:
select rating
Wanna post a correction for this tab? Suggest correction