Oops, an error
Loading. Please wait.

A Thousand Faces Bass Tab

version 1
version 1

Whole song

Interactive

1,677 views 1 this week
no commentswrite comment
1 2 3 4 5
1 last vote to show rating
add to favorites
launch autoscroll
font size
0
reset
guitar tuner
Autoscroll
slow
fast
+/-
esc
set tempo
stop
Help us to improve Ultimate-Guitar.com Take our survey!
×
Author
Difficulty
Tuning
intermediate
B E A D F# B
Creed - A Thousand Faces
From the Album "Full Circle"
5 String Bass
Tabbed by jjhand


Verse 1 - at 0:24
G|---------|---------------------|----------------------|--------------------|
D|---------|---------------------|----------------------|--------------------|
A|---------|---------------------|----------------------|--------------------|
E|-3-2-----|---------------------|-3----------2/3-------|--------------------|
B|-----3---|-0--------3-3----0h3-|-----------------0-3~-|-0--------3-3---0-3-|
           "With clarity my scars remind me       ask yourself what's just under
                           Prechorus
G|-----------------------|--------------------|------------------------|
D|--------------5--------|--------------------|------------------------|
A|----------3/5---5/7~---|--------------------|------------------------|
E|-3---------------------|-2--------2--2------|-3--------3--3-3----5-0-|
B|-----------------------|--------------------|------------------------|
 my skin"                  "A different smile again, So much I hide"


G|-------------------|-----------------|
D|-------------------|-----------------|
A|-------------------|-----------------|
E|-2--------2--------|-3------------10\|
B|-------------------|-----------------|
  "How is stepping back a move forward?"




Chorus
G|---------------------------------|--------------------------------|
D|---------------------------------|--------------------------------|
A|---------------------------------|--------------------------------|
E|-3-3-3-3-3-3-3-3-3-3-3-3-3-3-3-3-|-2-2-2-2-2-2-2-2-----2-2-2--3~--|
B|---------------------------------|-----------------2h3------------|
  "Now I'm forced to look behind I'm forced to look at you"

G|----------------------|---------------------------|
D|----------------------|---------------------------|
A|----------------------|---------------/4-4-4-4-4~-|
E|----------------------|---------------------------|
B|-3---3-3----3----3-3--|-2-2---2-2--2--------------|
  "You wear a thousand faces Tell me, tell me which is you"


G|---------------------------------|---------------------------|
D|---------------------------------|---------------------------|
A|---------------------------------|---------------------------|
E|-3-3-3-3-3-3-3-3-3-3-3-3-3-3-3-3-|-2-2---2---2-2---3p2-------|
B|---------------------------------|-----------------------/5~-|
  ""Broken mirrors paint the floor, But still reflect the truth"


G|----------------------|--------------------|
D|----------------------|--------------------|
A|----------------------|--------------------|
E|----------------------|--------------------|
B|-3----3----3--3--3----|-2------------------|
"You wear a thousand faces, Tell me, tell me which is you"



Before Verse 2
G|--------------------|---------------------|--------------------|
D|--------------------|---------------------|--------------------|
A|--------------------|---------------------|--------------------|
E|--------------------|-3---------2/3--2----|--------------------|
B|-0--------3-3---0h3-|-------------------3-|-0--------3-3---0-3-|

G|-----------------------|
D|-----------------------|
A|-----------------------|
E|-3--------3--3-3---/7\-|
B|-----------------------|


Verse 2
G|---------------------|-------------------------|---------------------|
D|---------------------|-------------------------|---------------------|
A|---------------------|-------------------------|---------------------|
E|---------------------|-3----3----3--3-3--2/3---|---------------------|
B|-0----0----3-3---0h3-|-----------------------3-|-0--------3-3---3----|

G|------------------------|---------------------|-----------------------|
D|------5-----------------|---------------------|-----------------------|
A|------------------------|---------------------|-----------------------|
E|-3--------2/3--2---3----|---------------------|-3----3----3--3--------|
B|-----------------3---3~-|-0----0-----3-----3--|-----------------0--3--|

G|----------------------|-----------------------|-----------------------|
D|----------------------|------5--------5-------|------4----------------|
A|----------------------|-----------3/5---5/7~--|-----------------------|
E|----------------------|-3---------------------|-2--------2---2-----2--|
B|-0----0-----3--3----0-|-----------------------|-----------------------|

G|------------------------|-------------------|------------------|
D|------5-----------------|-------------------|------------------|
A|------------------------|-------------------|------------------|
E|-3---------3---3-3---/5-|-2--------2--2-----|-3------------10\-|
B|------------------------|-------------------|------------------|




Chorus 2
G|---------------------------------|-------------------------------|
D|---------------------------------|-------------------------------|
A|---------------------------5-----|-------------------------------|
E|-3-3-3-3-3---3-3-3---3-3-3---3---|-2---2-2-2---2-2-2---2-2-2-3~--|
B|---------------------------------|-------------------------------|

G|-----------------------|----------------------------|
D|-----------------------|----------------------------|
A|-----------------------|----------------------------|
E|-----------------------|----------------------------|
B|-3---3-3---3--3--3--3--|-2-2---2-2--2---2-2---2--2--|

G|---------------------------------|---------------------------|
D|---------------------------------|---------------------------|
A|---------------------------------|---------------------------|
E|-3-3-3-3-3-3-3-3-3-3-3-3-3-3-2-3-|-2---2-2---2-2---3p2-------|
B|---------------------------------|-----------------------/5~-|

G|----------------------|--------------------|--------------------|
D|----------------------|--------------------|--------------------|
A|----------------------|--------------------|--------------------|
E|----------------------|-/9~----------------|--------------------|
B|-3----3----3--3--3----|--------------------|-0------------------|




Bridge (2:45)
G|-----------------------|---------------------|-----------------------|
D|-----------------------|---------------------|-----------------------|
A|-------------7--7--6/7-|-6----6----6---------|-----------------------|
E|-----------------------|------------------2--|-3----3----3--3-3--3---|
B|-0----0----------------|---------------------|-----------------------|
"I Bleed Inside                    gotta let it out, Just let it out"

G|----------------------|
D|----------------------|
A|----------------------| play 2x
E|----------------7\----|
B|-3------2--2----------|

Bridge Ending:
G|-----------------------|---------------------|-----------------------|
D|-----------------------|---------------------|-----------------------|
A|-----------------------|---------------------|-----------------------|
E|-----------------------|-----------7\-----2--|-3----3----3--3-3--3---|
B|-0----0------5--5--4h5-|-4----4--------------|-----------------------|

G|--------------------|--------------------|
D|--------------------|--------------------|
A|--------------------|--------------------|
E|--------------------|--------------------|
B|-3------2--2--------|-0------------------|


Final Chorus
G|---------------------------------|-------------------------------|
D|---------------------------------|-------------------------------|
A|---------------------------------|-------------------------------|
E|-3-3-3-3-3---3-3-3---3-3-3-3-3---|-2---2-2-2---2-2-2---2-2-2--0--|
B|---------------------------------|-------------------------------|

G|------------------------|---------------------------|
D|------------------------|---------------------------|
A|------------------------|---------------------------|
E|------------------------|---------------------------|
B|-3---3-3---3--2h3--3--3-|-2-2---2-2--2---/3--/3--2--|

G|-------------------------------|-----------------------|
D|-------------------------------|-----------------------|
A|---------------------5---0h2---|-----------------------|
E|-3---3---3---3-3-3-----3-------|-2---2-2----2----2--0--|
B|-------------------------------|-----------------------|

G|-----------------------|-----------------------|
D|-----------------------|-----------------------|
A|-----------------------|-----------------------|
E|-----------------------|-----------------------|
B|-3----3----3--3--3--3--|-2----2----2--2--2--2--|

Repeat Chorus similarly during solo

Ending
   G        F#       Acoustic Intro Begins Again
G|--------|--------|-----------------------------|
D|--------|--------|-----------------------------|
A|--------|--------|-----------------------------|
E|-3------|-2------|-----------------------------|
B|--------|--------|-0---------------------------|


KEY
************************************

| /   slide up
| \   slide down
| h   hammer-on
| p   pull-off
| ~   vibrato

************************************
Suggest correction
Give kudos to tab author, rate the tab!
1 2 3 4 5
comments
print report bad tab
guest
You may want to rate the tab now too:
select rating
Wanna post a correction for this tab? Suggest correction