Oops, an error
Loading. Please wait.

Away In Silence Bass Tab

version 1
version 1

Whole song

Interactive

243 views 1 this week
no commentswrite comment
1 2 3 4 5
please rate
add to favorites
launch autoscroll
font size
0
reset
guitar tuner
Autoscroll
slow
fast
+/-
esc
set tempo
stop
Help us to improve Ultimate-Guitar.com Take our survey!
×
Author
Difficulty
Tuning
intermediate
B E A D F# B
Creed - "Away in Silence"
From the album "Full Circle"
5 string bass tuning
tabbed by jjhand

This acoustic driven ballad details the singer's plea to his wife to allow him to change
his ways and save their marriage. It reminds me of several of their popular songs like
'One Last Breath' and 'With Arms Wide Open' but
uses lower tunings for a deeper sound that works with Scott Stapp's deep
voice better. Please rate/comment.


Intro - Acoustic


Verse 1 -
G|-------------------|------------|------------|-------------------|
D|-------------------|------------|------------|-------------------|
A|-7-----------6--7--|-6-----9----|-5-----7----|---------------6---|
E|----------7--------|------------|------------|-5---5-----5-------|
B|-------------------|------------|------------|-------------------|

G|-------------------|------------|------------|------|------|-------------|--------|
D|-------------------|------------|------------|------|------|-------------|--------|
A|-7-----------6--7--|-6-----9----|-5-----7----|------|------|---------7/--|-12-----|
E|----------7--------|------------|------------|-5----|-5----|-5-----------|--------|
B|-------------------|------------|------------|------|------|-------------|--------|




Chorus 1:
G|-----------------|----------------|--------|-------------------|----------------|
D|-----------------|----------------|--------|-------------------|----------------|
A|-----------------|----------------|--------|---------------2---|----------------|
E|-----------------|-------------0--|--------|------4---5--------|----------------|
B|-5-----5---4--2--|-0--------0-----|-2------|-2-----------------|-5--------4--2--|

G|----------------|--------|-------------------|----------------|----------------|
D|----------------|--------|-------------------|----------------|----------------|
A|----------------|--------|---------------2---|----------------|----------------|
E|-------------0--|--------|------4---5--------|----------------|-------------0--|
B|-0--------0-----|-2------|-2-----------------|-5--------4--2--|-0--------0-----|

G|--------|-------------------|----------------|----------------|--------|--------|
D|--------|-------------------|----------------|----------------|--------|--------|
A|--------|---------------2---|----------------|----------------|--------|--------|
E|--------|------4---5--------|----------------|-------------0--|--------|-5------|
B|-2------|-2-----------------|-5--------4--2--|-0--------0-----|-2------|--------|




Verse 2
G|-------------------|------------|------------|-------------------|-------------------|
D|-------------------|------------|------------|-------------------|-------------------|
A|-7-----------6--7--|-6-----9----|-5-----7----|---------------6---|-7-----------6--7--|
E|----------7--------|------------|------------|-5---5-----5-------|----------7--------|
B|-------------------|------------|------------|-------------------|-------------------|

G|------------|------------|-------------------|---------------------|---------------|
D|------------|------------|-------------------|---------------------|---------------|
A|-6-----9----|-5-----7----|---------------6---|-7-------7-----------|---------------|
E|------------|------------|-5---5-----5-------|------7-----7--------|-----------7---|
B|------------|------------|-------------------|---------------5-----|-4-----4-------|

G|--------|--------|--------|--------|--------------------------|
D|--------|--------|--------|--------|-7-7-7-7-7-7-7-7-7-7-7\---|
A|--------|--------|--------|--------|--------------------------|
E|--------|-5------|-5------|-5------|--------------------------|
B|-3------|--------|--------|--------|--------------------------|






Chorus 2 - Play Chorus 1, and add the following ending:

G|--------|---------------------|-------------------------------------|
D|--------|---------------------|-7--7--7--7--7--7--7--7--7--7--7--7--|
A|--------|---------------------|-------------------------------------|
E|-5------|-5----5----5----5----|-------------------------------------|
B|--------|-5---------5---------|-------------------------------------|






Bridge -

        play these 4 bars similarly 3x
G|-------------------|-------------------------|
D|-------------------|-------------------------|
A|-------------------|-------------------------|
E|-------------------|-------------------------|
B|-3-----3---5---3---|-2---2--2---2--2----2----|

|---------------------------|-----------------------------|
|---------------------------|-----------------------------|
|---------------------------|-----------------------------|
|-0---0---0--0--0---0-------|-0---0--0--0--0--2---2---2---|
|-----------------------0h2-|-----------------------------|


Bridge Ending-

G|-------------------|-------------------------|
D|-------------------|-------------------------|
A|-------------------|-------------------------|
E|-------------------|-------------------------|
B|-3-----3---5---3---|-2---2--2---2--2----2----|

G|-------------------------------|-----------------------------|
D|-------------------------------|-----------------------------|
A|----------------------------9--|-11--11-9---7--9--7-----7----|
E|-0---0--0--0--0--0---0---0-----|---------------------9-------|
B|-------------------------------|-----------------------------|






Chorus - Play Chorus Riff, then this ending:

G|--------|-------------------------|-------------------------------------|
D|--------|-------------------------|-7--7--7--7--7--7--7-----------------|
A|--------|-------------------------|-------------------------------------|
E|-5------|-5---5---5---5---5---5---|-------------------------------------|
B|--------|-5---5---5---5---5---5---|-------------------------------------|
Suggest correction
Give kudos to tab author, rate the tab!
1 2 3 4 5
comments
print report bad tab
guest
You may want to rate the tab now too:
select rating
Please do not post tabs as comments. Select "correction" instead!