Oops, an error
Loading. Please wait.

Beautiful Tab

version 1
version 1

Whole song

Interactive

23,083 views 24 this week
11 commentsread comments
1 2 3 4 5
excellent!
x 15
add to favorites
launch autoscroll
font size
0
reset
how to read this tab
guitar tuner
Autoscroll
slow
fast
+/-
esc
set tempo
stop
Help us to improve Ultimate-Guitar.com Take our survey!
×
Author
Artist: Creed
Song: Beautiful
Album: Human Clay
Written by: Mark Tremonti and Scott Stapp
Tabbed by: Drew Montgomery
Tuning: Drop-D(D-A-D-G-B-E)
Key: . = palm mute, h = hammer on, p = pull off,
b = bend, / = slide up, \ = slide down, v = vibrato

Well I must say that Fernando Delgado's tab for this song
is nearly perfect, but there were a few mistakes. So here's
the complete tab for all you Creed fans out there.
God bless and rock on!!!

Intro/Verse(clean)

E|--------------------------------------------------------|
B|--------------------------------------------------------|
G|--------------------------------------------------------|
D|------3-----3h5-----2-----3------3-----3h5-----2-----3--|
A|----------------------------5---------------------------|
D|--0-0---0-0-----0-0---0-0------0---0-0-----0-0---0-0----|

Pre-Chorus Fill(distortion)

E|--------------------------------------------------------|
B|--------------------------------------------------------|
G|--------------------------------------------------------|
D|--------3bp0--------------------------------------------|
A|---0-0--------------------------------------------------|
D|---0-0--------------------------------------------------|
     ...
Chorus(distortion)

E|--------------------------------------------------------|
B|--------------------------------------------------------|
G|--3-3-3---3--3-3---3--3---------------------------------|
D|--1-1-1p0-1--1-1p0-1--1p0--3-----3h5-----2-----3-----0--|
A|--1-1-1p0-1--1-1p0-1--1p0----0-0-----0-0---0-0---5v--0--|
D|--1-1-1p0-1--1-1p0-1--1p0----0-0-----0-0---0-0-------0--|
                               ...     ...   ...
E|--------------------------------------------------------|
B|--------------------------------------------------------|
G|--3--3-3---3--3--3-3---3--3-----------------------------|
D|--1--1-1-0-1--1--1-1p0-1--1--0-0--0-0--0-0--0-0--0-0-0--|
A|--1--1-1-0-1--1--1-1p0-1--1--0-0--0-0--0-0--0-0--0-0-0--|
D|--1--1-1-0-1--1--1-1p0-1--1--0-0--0-0--0-0--0-0--0-0-0--|
           .                   ......    ......    .....
E|--------------------------------------------------------|
B|--------------------------------------------------------|
G|----------------------7b----------7b---------7b------7--|
D|--0--0-0--0-0--0-0-0--x---0-0--0--x---0-0-0--x---0-0-x--|
A|--0--0-0--0-0--0-0-0--5b--0-0--0--5b--0-0-0--5b--0-0-5--|
D|--0--0-0--0-0--0-0-0------0-0--0------0-0-0------0-0----|
       ......    .....      .    .      .....      ...
Interlude(clean)

E|--------------------------------------------------------|
B|--------------------------------------------------------|
G|--------------------------------------------------------|
D|-----5--8----7------------------------------------------|
A|--------------------------------------------------------|
D|--------------------------------------------------------|

Bridge(distortion)

E|--------------------------------------------------------|
B|--------------------------------------------------------|
G|----------19b----------19b----------19b---------19v-----|
D|----------x------------x------------x-----------x-------|
A|----------17b----------17b----------17b---------17v-----|
D|--0-0--0-------0-0--0-------0-0--0-------0-0-0----------|

E|--------------------------------------------------------|
B|--------------------------------------------------------|
G|----------19v-----------19-19-19-19-19-19--19-19-19\----|
D|----------x-------------x--x--x--x--x--x---x--x--x---0--|
A|----------17v-----------17-17-17-17-17-17--17-17-17\-0--|
D|--0-0--0-------0-0-0-0-------------------------------0--|

Guitar Solo(guitar 1)(distortion)

E|--------------------------------------------------------|
B|--------------------------------------------------------|
G|--------------------------------------------------------|
D|--x---/7--9/12--9vvvvvvvvvvvv----/12---14/17----16------|
A|--------------------------------------------------------|
D|--------------------------------------------------------|

E|--------------------------------------------------------|
B|------------------------19------------------------------|
G|--------------------------------------------------------|
D|----/19------16--17-------------------------------------|
A|--------------------------------------------------------|
D|--------------------------------------------------------|

Guitar Solo(guitar 2)(distortion)

E|--------------------------------------------------------|
B|--------------------------------------------------------|
G|--------------------------------------------------------|
D|--7--7-7-7-7h9--9--9-9-7-------4--4-4--4-5--5--5-5-5-4--|
A|--5--5-5-5-5h5--5--5-5-5--0-0--2--2-2--2-2--2--2-2-2-2--|
D|--5--5-5-5-5h5--5--5-5-5--0-0--2--2-2--2-2--2--2-2-2-2--|

E|--------------------------------------------------------|
B|--------------------------------------------------------|
G|--------------------------------------------------------|
D|-------4-------4h5-------5p4-------4------4h5-5-5-5-4---|
A|--0-0-----0-0-------0-0-------0-0-----0-0-----0-0-0-0-0-|
D|--0-0-----0-0-------0-0-------0-0-----0-0-----0-0-0-0-0-|

Outro(distortion)

E|--------------------------------------------------------|
B|--------------------------------------------------------|
G|--19-19-19-19-19-19-19-19-19--19--19--19--19---19-------|
D|--x--x--x--x--x--x--x--x--x---x---x---x---x----x----0---|
A|--17-17-17-17-17-17-17-17-17--17--17--17--17---17---0---|
D|----------------------------------------------------0---|

That's all for this song. Peace out!!!
Suggest correction
What's this?
You can suggest a correction to this tab. Community and Mods will review your correction and vote to approve or reject it.
comments
print report bad tab
11 comments total. Showing first comments.
0 reply
spiderman86 363 wrote on November 7 2002, 12:00 am

whoa awesome tab its 100% correct keep tabbin and rock on dude rock on!!!

0 reply
Wrath 0 wrote on December 5 2002, 12:00 am

Thanx yo!

0 reply
deminished soul 56 wrote on July 11 2003, 12:00 am

very close

guest
You may want to rate the tab now too:
select rating
Please do not post tabs as comments. Select "correction" instead!