Oops, an error
Loading. Please wait.

Bound And Tied Tab

version 2
version 2

Whole song

428 views 1 this week
no commentswrite comment
1 2 3 4 5
please rate
add to favorites
launch autoscroll
font size
0
reset
how to read this tab
guitar tuner
Autoscroll
slow
fast
+/-
esc
set tempo
stop
Help us to improve Ultimate-Guitar.com Take our survey!
×
Band- Creed 
Song- Bound And Tied

Tuning: Drop D(D A D G B E)

Intro
|---------------------|
|---------------------|
|---------------------|
|-3^-3^--3^-3^--3-3-0-|
|-3^-3^--3^-3^--3-3-0-|
|-3^-3^--3^-3^--3-3-0-|
                PM-|
NOTE: Harmonic is played with ring and middle finger over third fret.

|--------------------------------------------------------------|
|--------------------------------------------------------------|
|--------------------------------------------------------------|
|-------0-0-0--------------------------0-0-0-------------3br-0-|
|--------------------------------------------------------------|
|-6-6-6-------6-6-6-5-5-5-3br-0--6-6-6-------6-6-6-5-5-5-------|
  PM---------------------|       PM---|      PM---------|

|-----------------------------------------------------|
|-----------------------------------------------------|
|-----------------------------------------------------|
|-------0-0-0--------------------------0-0-0----------|
|-----------------------------------------------------|
|-6-6-6-------6-6-6-5-5-5-3br-0--6-6-6-------6-6-6-3b-|
  PM---------------------|       PM---------------|

|-------------------------------------------------------|
|-------------------------------------------------------|
|-------------7br-----------------------7br-------------|
|-3-3-0-5br-0-0--0-5br-0-3-0-3-0--5br-0-0---0-5br-0-3-0-|
|-3-3-0-5br-0----0-5br-0-3-0-3-0--5br-0-----0-5br-0-3-0-|
|-3-3-0-5br-0----0-5br-0-3-0-3-0--5br-0-----0-5br-0-3-0-|x2
  PM-|

|---------|
|---------|
|---------|
|-3-3-0~~-|
|-3-3-0~~-|
|-3-3-0~~-|
  PM-|

Verse
Let the open ring for a while and for a while there's nothing then
this comes in:
|--------------------------------------------------------------|
|--------------------------------------------------------------|
|--------------------------------------------------------------|
|-------0-0-0-------------3br-0--------0-0-0-------------------|
|--------------------------------------------------------------|
|-6-6-6-------6-6-6-5-5-5--------6-6-6-------6-6-6-5-5-5-3br-0-|
  PM---------------------|       PM---------------------|

|--------------------------------------------------------------|
|--------------------------------------------------------------|
|--------------------------------------------------------------|
|-------0-0-0--------------------------0-0-0-------------------|
|--------------------------------------------------------------|
|-6-6-6-------6-6-6-5-5-5-3-3-0--6-6-6-------6-6-6-5-5-5-3br-0-|
  PM-------------------------|   PM---------------------|

|--------------------------------------------------------------|
|--------------------------------------------------------------|
|--------------------------------------------------------------|
|-------0-0-0--------------------------0-0-0-------------------|
|--------------------------------------------------------------|
|-6-6-6-------6-6-6-5-5-5-3br-0--6-6-6-------6-6-6-5-5-5-3br-0-|x2
  PM--------------------|        PM---------------------|

|----------------------|
|----------------------|
|----------------------|
|-------0-0-0----------|
|----------------------|
|-6-6-6-------6-6-6-3b-|
  PM---------------|

Fill 1(This comes in in the middle of the riffs above)
|-------|-------|-------|-------|
|----15-|----17-|----18-|----20-|
|-14----|-16----|-17----|-19----|
|-------|-------|-------|-------|
|-------|-------|-------|-------|
|-------|-------|-------|-------|
Play each of these 6 times

Fill 2
|-------|
|-------|
|-------|
|-3^-3^-|
|-3^-3^-|
|-3^-3^-|
NOTE:This Fill is played right before entering the Chorus.

Chorus
|-------------------------------------------------------|
|-------------------------------------------------------|
|-------------7br-----------------------7br-------------|
|-3-3-0-5br-0-0--0-5br-0-3-0-3-0--5br-0-0---0-5br-0-3-0-|
|-3-3-0-5br-0----0-5br-0-3-0-3-0--5br-0-----0-5br-0-3-0-|
|-3-3-0-5br-0----0-5br-0-3-0-3-0--5br-0-----0-5br-0-3-0-|x4
  PM-|

|---------|
|---------|
|---------|
|-3-3-0~~-|
|-3-3-0~~-|
|-3-3-0~~-|
  PM-|

Fill3
|-----|
|-----|
|-----|
|-x\\-|
|-x\\-|
|-x\\-|
NOTE:This is a pick scrape played right when the first guitar
repeats the chorus riff for the first time.

Fill4(Played after chorus)
|--------7^-------------------------|
|--7^-------------------------------|
|-----7^-----7^~--------------------|
|------------7^~--------------------|
|-----------------------------------|
|----------------------------0-2.7^-|
NOTE: 2.7=Right by fret between 2nd and 3rd.

2nd Verse
|---------------------------------------------------------------------|
|---------------------------------------------------------------------|
|---------------------------------------------------------------------|
|--------------0-0-0--------------------------0-0-0-------------------|
|---------------------------------------------------------------------|
|-3-3-0--6-6-6-------6-6-6-5-5-5-3br-0--6-6-6-------6-6-6-5-5-5-3-3-0-|
  PM-|   PM---------------------|       PM-------------------------|

|---------------------------------------------------------------|
|---------------------------------------------------------------|
|---------------------------------------------------------------|
|-------0-0-0---------------------------0-0-0-------------3br---|
|---------------------------------------------------------------|
|-6-6-6-------6-6-6-5-5-5-3br-0--6-6-6--------6-6-6-5-5-5-----0-|
  PM---------------------|       PM----------------------|

|--------------------------------------------------------------|
|--------------------------------------------------------------|
|--------------------------------------------------------------|
|-------0-0-0--------------------------0-0-0-------------------|
|--------------------------------------------------------------|
|-6-6-6-------6-6-6-5-5-5-3br-0--6-6-6-------6-6-6-5-5-5-3-3-0-|x2
  PM---------------------|       PM-------------------------|

|--------------------------------------------------------------|
|--------------------------------------------------------------|
|--------------------------------------------------------------|
|-------0-0-0--------------------------0-0-0-------------------|
|--------------------------------------------------------------|
|-6-6-6-------6-6-6-5-5-5-3br-0--6-6-6-------6-6-6-5-5-5-3br-0-|
  PM---------------------|       PM---------------------|

|-----------------------------------------------------|
|-----------------------------------------------------|
|-----------------------------------------------------|
|-------0-0-0--------------------------0-0-0----------|
|-----------------------------------------------------|
|-6-6-6-------6-6-6-5-5-5-3br-0--6-6-6-------6-6-6-3b-|
  PM---------------------|       PM---------------|
With this Verse Fill 1 comes in again.

Chorus
|-------------------------------------------------------|
|-------------------------------------------------------|
|-------------7br-----------------------7br-------------|
|-3-3-0-5br-0-0--0-5br-0-3-0-3-0--5br-0-0---0-5br-0-3-0-|
|-3-3-0-5br-0----0-5br-0-3-0-3-0--5br-0-----0-5br-0-3-0-|
|-3-3-0-5br-0----0-5br-0-3-0-3-0--5br-0-----0-5br-0-3-0-|x4
  PM-|

|---------|
|---------|
|---------|
|-3-3-0~~-|
|-3-3-0~~-|
|-3-3-0~~-|
  PM-|

Interlude(Clean tone)
|-----------------------------------------------|
|-----------------------------------------------|
|-7--7-7-7-7--7-7-7-7--7-7-7--12-12-12-10-10-10-|
|-0--0-0-0-0--0-0-0-0--0-0-0--0--0--0--0--0--0--|
|-0--0-0-0-0--0-0-0-0--0-0-0--0--0--0--0--0--0--|
|-----------------------------------------------|x7
NOTE: Strumming not exact.

|-----------------------------------------------------|
|-15--15-15-15-17--17-17-17-18--18-18-18-20--20-20-20-|
|-14--14-14-14-16--16-16-16-17--17-17-17-19--19-19-19-|
|-0---0--0--0--0---0--0--0--0---0--0--0--0---0--0--0--|
|-0---0--0--0--0---0--0--0--0---0--0--0--0---0--0--0--|
|-0---0--0--0--0---0--0--0--0---0--0--0--0---0--0--0--|

(Distortion comes in here)
|---------------------------|
|---------------------------|
|------7--------------------|
|-0----7----7-------5-----3-|
|-0----5----7--5h7--5-----3-|
|-0---------7-------5-----3-|x4
NOTE:On the last time before going into the below tab don't hit 
the 333xxx barre use the 555xxx as the beginning of the strumming
of this riff:
|------------------------------------------|
|------------------------------------------|
|------------------------------------------|
|-5--5-5-5-5--5-5-5-5--5-5-5-5--5-5-5/17tp-|
|-5--5-5-5-5--5-5-5-5--5-5-5-5--5-5-5/17tp-|
|-5--5-5-5-5--5-5-5-5--5-5-5-5--5-5-5/17tp-|
NOTE: tp stands for Tremelo Pick.

End Chorus
|-------------------------------------------------------|
|-------------------------------------------------------|
|-------------7br-----------------------7br-------------|
|-3-3-0-5br-0-0--0-5br-0-3-0-3-0--5br-0-0---0-5br-0-3-0-|
|-3-3-0-5br-0----0-5br-0-3-0-3-0--5br-0-----0-5br-0-3-0-|
|-3-3-0-5br-0----0-5br-0-3-0-3-0--5br-0-----0-5br-0-3-0-|x4
  PM-|
Fill 1 comes in starting of the forth time.

|--------------------------------------------------------------------|
|--------------------------------------------------------------------|
|--------------------------------------------------------------------|
|-3-3-0-------0-0-0--------------------------0-0-0-------------------|
|-3-3-0--------------------------------------------------------------|
|-3-3-0-6-6-6-------6-6-6-5-5-5-3br-0--6-6-6-------6-6-6-5-5-5-3br-0-|
  PM-|

|--------------------------------------------------------|
|--------------------------------------------------------|
|--------------------------------------------------------|
|-------0-0-0--------------------------0-0-0-------------|
|--------------------------------------------------------|
|-6-6-6-------6-6-6-5-5-5-3br-0--6-6-6-------6-6-6-5-5-5-|

|---------|
|---------|
|---------|
|-3-3-0~~-|
|-3-3-0~~-|
|-3-3-0~~-|
  PM-|

After all that then your done!
Suggest correction
Give kudos to tab author, rate the tab!
1 2 3 4 5
comments
print report bad tab
guest
You may want to rate the tab now too:
select rating
Please do not post tabs as comments. Select "correction" instead!