Oops, an error
Loading. Please wait.

Bread Of Shame Bass Tab

version 1
version 1

Whole song

  • First Bass tab of this song. All parts included.

Interactive

19 views 1 this week
no commentswrite comment
1 2 3 4 5
2 more votes to show rating
add to favorites
launch autoscroll
font size
0
reset
guitar tuner
Autoscroll
slow
fast
+/-
esc
set tempo
stop
Help us to improve Ultimate-Guitar.com Take our survey!
×
Author
Difficulty
Tuning
intermediate
A E A D F# B
About this tab version
First Bass tab of this song. All parts included. Was this info helpful? Yes No
Creed - 'Bread of Shame' From 'Full Circle' Album 
Tuning: G# F# B E <- Tune all strings down 3 frets, then tune lowest string to G# 
Tabbed by jjhand


 Main Heavy Riff - 
|--------------------|---------------------|--------------------|-------------------| 
|--------------------|---------------------|--------------------|-------------------| 
|-----------------2~-|-----------------2/3-|-----------------2~-|-5---5---5-5-3---3-| 
|-1~--3~--5~--0------|-1~--3~--5~--0-------|-1~--3~--5~--0------|-------------------|
 
|--------------------|---------------------|--------------------|-------------------| 
|--------------------|---------------------|--------------------|-------------------| 
|-----------------2~-|-----------------2/3-|-----------------2~-|-5---5---5-5-5---5-| 
|-1~--3~--5~--0------|-1~--3~--5~--0-------|-1~--3~--5~--0------|-------------------| 

|--------------------|
|--------------------|
|-3------------------|
|--------------------|


Verse 
|-----------------------------|-----------------------------|----------------------------| 
|-----------------------------|-----------------------------|----------------------------| 
|-2-2-2-----3-3-3-----8-8-8---|---5-5-5-----2h3-2h5-2---2h3-|-2-2-2-----3-3-3------------| 
|-------0---------0---------0-|---------0-------------0-----|-------0---------0---1-1-1--| 
"If you say I'm alive I guess I'm living                    Why should I guess your size, " 

|-------------------------|-----------------------------|---------------------------| 
|-------------------------|-----------------------------|---------------------------| 
|-------------------------|-2-2-2-----3-3-3-----8-8-8---|---5-5-5-----2h3-2h5-3p2-3-| 
|-1~-0--------------------|-------0---------0---------0-|---------0-----------------| 
"a choice I've been given.      Tell me everything's fine and peace is coming" 

|---------------------------|-----------| 
|---------------------------|-----------| 
|-2-2-2-----3-3-3-----------|-----------|
|-------0---------0---1-1-1-|-1~-0------|
"I won't listen to the heartache I'm numbing" 




Prechorus - play 2x, with lyrics shown 
|----------------------------|-------------------------------| 
|----------------------------|-------------------------------| 
|-2-2-2-----3-3-3-----8-8-8--|-----5-5-5-----2h3-2h5-2--2/3--| 
|-------0---------0----------|-0---------0------------0------| 
  "When the world casts me down and says I've changed" 

|---------------------------|------------------------|  
|---------------------------|------------------------| 
|-2-2-2-----3-3-3-----------|------------------------|  
|-------0---------0---1-1-1-|-1~~-0---0---0---0---0--| 
  "I'll survive on all the promises you made to me" 

|----------------------------|-------------------------------| 
|----------------------------|-------------------------------| 
|-2-2-2-----3-3-3-----8-8-8--|-----5-5-5-----2h3-2h5-2--2h3--| 
|-------0---------0----------|-0---------0------------0------| 
"Guess there's no one to blame When all you're living on is" 

|---------------------------|------------------------|  
|---------------------------|------------------------| 
|-2-2-2-----3-3-3-----------|------------------------|  
|-------0---------0---1-1-1-|-1~~-0------------------| 
"bread of shame" 




Chorus - Play 'Main Heavy Riff' 


Play Verse and Prechorus again 


Play Chorus again


Guitar plays Intro again


Bridge 
|-------|----------------------------|------------------------------| 
|-------|----------------------------|------------------------------| 
|-5--3--|-3~-------2p0-2-3-2-0-2---5-|------------7--3~-------------|
|-------|----0--0--------------------|-3~--0--0-0-------0---0-6-0---| 
            "Tell me where I sign my name" 

|---------------------------|--------------------------------| 
|---------------------------|--------------------------------|
|-3~------2p0-2~--2p0-2-2-5-|--------------7--3~-------------| 
|-----0-0-------------------|-3~--0---0-0--------0---0-6-6-0-| 
"Inside I find no peace of mind to hide behind, Only bread of shame" 

|----------------------------|------------------------------|
|----------------------------|------------------------------| 
|-3~-------2p0-2-3-2-0-2---5-|------------7--3~-------------|
|----0--0--------------------|-3~--0--0-0-------0---0-6-0---| 
            "Tell me where I sign my name" 

|---------------------------|--------------------------------| 
|---------------------------|--------------------------------|
|-3~------2p0-2~--2p0-2-2-5-|--------------7--3~-------------| 
|-----0-0-------------------|-3~--0---0-0--------0---0-6-6-0-| 
"Inside I find no peace of mind to hide behind, Only bread of shame" 

Play Chorus again 



Ending -
          Play 3x             Finally:
|-------------------------| |-------------------------|---------------------| 
|-------------------------| |-------------------------|---------------------| 
|-------------------2-----| |-------------------------|---------------------| 
|-1---3---5---0-----------| |-1---3---5---1---3---5---|-1---3---5---0-------| 



*******************************
key
*******************************

h  - hammer-on
p  - pull-off
~  - vibrato
Suggest correction
Give kudos to tab author, rate the tab!
1 2 3 4 5
comments
print report bad tab
guest
You may want to rate the tab now too:
select rating
Wanna post a correction for this tab? Suggest correction