Oops, an error
Loading. Please wait.

Bullets Tab

version 1
version 1
36,320 views 6 this week
31 commentsread comments
1 2 3 4 5
excellent!
x 42
add to favorites
launch autoscroll
font size
0
reset
how to read this tab
guitar tuner
Autoscroll
slow
fast
+/-
esc
set tempo
stop
Help us to improve Ultimate-Guitar.com Take our survey!
×
Contributor
Tabbers playing skills
tza 6,907
advanced ++
Bullets-Creed
Weathered

Drop D:
D A D G B E

( ) = harmonic
v = whammy bar dive

Intro: Clean w/ wah used as envelope filter

e-----------------------------------------------------------------
b-----------------------------------------------------------------
g-----------------------------------------------------------------
d-----------------------------------------------------------------
a-----------------------------------------------------------------
d-0-0-0-0-0-0-0-0-0-0-0-0-0-0-0-0-0-0-0-0-0-0-0-0-0-0-0-0-0-0-0-0-

w/ spoken words

e-----------------------------------------------------------------
b-----------------------------------------------------------------
g-----------------------------------------------------------------
d-----------------------------------------------------------------
a-12---12-12-12-12--------------------12-12-12-13-13---13---------
d--0---0--0--0--0----0-0-0-0-0-0-0-0---0--0--0--0--0----0-0-0-0-0-

e-----------------------------------------------------------------
b-----------------------------------------------------------------
g-----------------------------------------------------------------
d-----------------------------------------------------------------
a--------------13---13-12-12-12-12--10-10-10---------------10--12-
d-0-0-0-0-0-0---0---0--0--0--0---0---0--0--0--0-0-0-0-0-0---0---0-

e-----------------------------------------------------------------
b-----------------------------------------------------------------
g-----------------------------------------------------------------
d-----------------------------------------------------------------
a-13---13-12-12-12--12--------------------------12-----12---------
d-0----0--0--0--0---0----0-0-0---0-0-0---0-0-0--0------0----------

... i have something so alive...

e-----------------------------------------------------------------
b-----------------------------------------------------------------
g-----------------------------------------------------------------
d-14--14-14-14-14--------14-14-14--14--14-14-15-15-15-------------
a-12--12-12-12-12--------12-12-12--13--13-13-13-13-13-------------
d-0---0--0--0--0--0-0-0-0-00---0---0---0--0--0--0--0----0-0-0-0---

e-----------------------------------------------------------------
b-----------------------------------------------------------------
g--------------12---12-12-12-12------------12-12--1214---14-14-14-
d---------------x----x--x--x--x-------------x--x---x-x----x--x--x-
a--------------10---10-10-10-10------------10-10--1012---12-12-12-
d-0-0-0-0-0-0-0-0----0--0--0--0---0-0-0-0-0-0--0---0-0-----0-0--0-

e-----------------------------------------------------------------
b-----------------------------------------------------------------
g-14-14---14-14-14--14-15---15-15-15-15/17-17-----17-----17--17---
d-x--x----x--x--x---x--x-----x--x--x--x--x--x------x------x---x---
a-12-12---12-12-12--12-13---13-13-13-13/15-15-----15-----15--15---
d-0--0----0--0--0---0--0----0--0--0--0--0--0------0------0---0----

Fig 1. (all in triplets, trust me)

e-----------------------------------------------------------------
b-----------------------------------------------------------------
g-----------------------------------------------------------------
d-----------------------------------------------------------------
a-----------------15--------------13------------------------------
d-13-12-0-12-0-12----12-0-12-0-12----12-0-12-0-0-13-12-0-10-12-0--

Verses: pm Fig 1.

Chorus:

e-----------------------------------------------------------------
b-----------------------------------------------------------------
g-----------------------------------------------------------------
d-----------------------------------------------------------------
a-0-1-0--1-0-1--0-----0-1-0--1-0-1--0--0--0-----------------------
d-0-1-0--1-0-1--0-----0-1-0--1-0-1--0--0--0-----------------------

e-----------------------------------------------------------------
b-----------------------------------------------------------------
g-----------------------------------------------------------------
d--------------------------------------1--------------------------
a-0-1-0--1-0-1--0-----0-1-0--1-0-1--0-----3-----------------------
d-0-1-0--1-0-1--0-----0-1-0--1-0-1--0-----------------------------

e-----------------------------------------------------------------
b-----------------------------------------------------------------
g-----------------------------------------------------------------
d-----------------------------------------------------------------
a-0-1-0--1-0-1--0-----0-1-0--1-0-1--0--0--0-----------------------
d-0-1-0--1-0-1--0-----0-1-0--1-0-1--0--0--0-----------------------

e-----------------------------------------------------------------
b-----------------------------------------------------------------
g-----------------------------------------------------------------
d-----------------------------------------------------------------
a-0-1-0--1-0-1--0-----0-1-0--1-0-1--0--0--0-----------------------
d-0-1-0--1-0-1--0-----0-1-0--1-0-1--0--0--0-----------------------

...through my head...(2nd time)

e-----------------------------------------------------------------
b-----------------------------------------------------------------
g-----------------------------------------------------------------
d-13-12-0-10-12-0-13-12-0-10-12-0-13-12-0-10-12-10----------------
a-13-12-0-10-12-0-13-12-0-10-12-0-13-12-0-10-12-10---0---0---0----
d-13-12-0-10-12-0-13-12-0-10-12-0-13-12-0-10-12-10---0---0---0----

e-----------------------------------------------------------------
b-----------------------------------------------------------------
g-----------------------------------------------------------------
d-13-12-0-10-12-0-13-12-0-10-12-0-13-12-0-10-12-10----------------
a-13-12-0-10-12-0-13-12-0-10-12-0-13-12-0-10-12-10---0------------
d-13-12-0-10-12-0-13-12-0-10-12-0-13-12-0-10-12-10---0------------

Solo Interlude: w/ whammy bar

e-----------------------------------------------------------------
b-----------------------------------------------------------------
g-----------------------------------------------(5)vvvvvvvvvvv----
d----------------------------------(7)vvvvvvvvv-------------------
a-(5)vvvvvvvvvv----(7)vvvvvvvvvvv---------------------------------
d-(5)vvvvvvvvvv---------------------------------------------------

Bridge: repeat ...i have something so alive... gtr part
w/ this lead over top

e-----------------------------------------------------------------
b-----------------------------------------------------------------
g-9---------9---------10----------10-----9--7----------------9----
d-----------------------------------------------------------------
a-----------------------------------------------------------------
d-----------------------------------------------------------------

that’s aboot all the song, just piece it together

trevor jones
timmy91199@yahoo.ca
comments
print report bad tab
31 comments total. Showing first comments.
0 reply
tza 6,907 wrote on February 24 2002, 12:00 am

yes......i got this from guitar world

0 reply
sickstrings 253 wrote on February 25 2002, 12:00 am

best tab yet good job, even if you did steal it, lol

0 reply
DG_GOD_21 101 wrote on February 26 2002, 12:00 am

gotta love GW eh, good job man

I want to post or [tab]
guest
You may want to rate the tab now too:
select rating
Please do not post tabs as comments. Select "correction" instead!