Oops, an error
Loading. Please wait.

Dont Stop Dancing Tab

version 4
version 4

Whole song

Interactive

1,644 views 3 this week
5 commentsread comments
1 2 3 4 5
x 6
add to favorites
launch autoscroll
font size
0
reset
how to read this tab
guitar tuner
Autoscroll
slow
fast
+/-
esc
set tempo
stop
Help us to improve Ultimate-Guitar.com Take our survey!
×
Author
________________________
Tunning     E A D G B E
________________________
KEY: h=hammer on 
b=bend  br= bend release
/=slide 
x=muted string
~ = Let note ring
________________________
This Tab should be 100% correct, if it isn't... prove it in the 
comments section. lol I am proud of this tab, if played right it 
sounds exactly the same as the song...

_____________________________________________________

Intro-Verse: Clean Tone or `acoustic
_____________________________________________________
E|-3----3------3-------3--3-----3---3-----3--3--3----|
B|-3----3------3-------3--3-----3---3-----3--3--3----|
G|-0----0------0-------0--0-----0---0-----0--0--0----| 
D|-0----0------0-------0--0-----2---2-----0--0--0----|
A|-2----2------0-------0--0-----3---3-----2--0--0----|
E|-3----3------2-------2--2--------------------------|

E|-3----3------3-------3--3-----3---3-----3--0-----------0--------|
B|-3----3------3-------3--3-----3---3-----3--3-------------8---0--|
G|-0----0------0-------0--0-----0---0-----0--0---------0-----0----| 
D|-0----0------0-------0--0-----2---2-----0--0-------9------------|
A|-2----2------0-------0--0-----3---3-----2--3----10--------------|
E|-3----3------2-------2--2---------------------------------------|

Pre Chorus: (Clean tone) strum up and down
______________________________________________________________
E|-0---0-0-0-0--------------0-0-0--0-0-0-0---0-0--------------|
B|-0---0-0-0-0-0-0h1--0-------3-3-3--3-3-3-3---3-3------------|
G|-2---2-2-2-2-2-2----2--0-0--0-0-0--0-0-0-0---0-0--0-0-------|
D|-2---2-2-2-2-2-2----2--0-0--2-2-2--2-2-2-2---2-2--0-0-------|
A|-0---0-0-0-0-0-0----0--0-0--3-3-3--3-3-3-3---3-3--0-0-------|
E|------------------------------------------------------------|
                       ~DISTORTION~
E|------------------------------------------------------------|
B|------------------------------------------------------------|
G|-0----0---0--0-0--0----0------5---5---5-5-5-5/7-7-7-7-------|
D|-4----4---4--4-4--4----4-0----5---5---5-5-5-5/x-x-x-x-------|
A|-2----2---2--2-2--2----2-0----3---3---3-3-3-3/5-5-5-5-------|
E|-0----0---0--0-0--0----0-0----------------------------------|

Chorus: 
______________________________________________________________
E|------------------------------------------------------------|
B|----------------------------0----0---0---0-0---0-0-0--------|
G|---------------7--7-7-7-----6----6---6---6-6---6-6-6-0------|
D|-5----5---5--0-7--7-7-7-0---7----7---7---7-7---7-7-7-0------|
A|-5----5---5--0-5--5-5-5-0---4----4---4---4-4---4-4-4-0------|
E|-3----3---3-------------------------------------------------|

E|------------------------------------------------------------|
B|------------------------------------------------------------|
G|-5----5---5--5-5---5-5-5-----------------7--7-7--7----------|
D|-5----5---5--5-5---5-5-5-0--5----5---5---7--7-7--7-0--------|
A|-3----3---3--3-3---3-3-3-0--5----5---5-0-5--5-5--5-0--------|
E|----------------------------3----3---3-0--------------------|

E|------------------------------------------------------------|
B|-0----0---0-0-0--0--0-0-0-----------------------------------|
G|-6----6---6-6-6--6--6-6-6-----5-----------------------------|
D|-7----7---7-7-7--7--7-7-7-----5-----------------------------|
A|-4----4---4-4-4--4--4-4-4-4/3-3-----------------------------|
E|------------------------------------------------------------|

Second Verse: Clean tone
__________________________________________________________________
E|-0--0-0-------------0-------------------------------0-----------|
B|-0--0-0--------------3---3----0---0--0--0--------------8---0----|
G|-4--4-4--0--------0-----0-----9---9--9--0---------0-----0-------|
D|-5--5-5--4------4------------10--10-10--9-------9---------------|`x5
A|-5--5-5--5----5--------------10--10-10-10----10-----------------|
E|----------------------------------------------------------------|

Pre Chorus: (Clean tone) strum up and down
______________________________________________________________
E|-0---0-0-0-0--------------0-0-0--0-0-0-0---0-0--------------|
B|-0---0-0-0-0-0-0h1--0-------3-3-3--3-3-3-3---3-3------------|
G|-2---2-2-2-2-2-2----2--0-0--0-0-0--0-0-0-0---0-0--0-0-------|
D|-2---2-2-2-2-2-2----2--0-0--2-2-2--2-2-2-2---2-2--0-0-------|
A|-0---0-0-0-0-0-0----0--0-0--3-3-3--3-3-3-3---3-3--0-0-------|
E|------------------------------------------------------------|
                       ~DISTORTION~
E|------------------------------------------------------------|
B|------------------------------------------------------------|
G|-0----0---0--0-0--0----0------5---5---5-5-5-5/7-7-7-7-------|
D|-4----4---4--4-4--4----4-0----5---5---5-5-5-5/x-x-x-x-------|
A|-2----2---2--2-2--2----2-0----3---3---3-3-3-3/5-5-5-5-------|
E|-0----0---0--0-0--0----0-0----------------------------------|

Chorus: 
______________________________________________________________
E|------------------------------------------------------------|
B|----------------------------0----0---0---0-0---0-0-0--------|
G|---------------7--7-7-7-----6----6---6---6-6---6-6-6-0------|
D|-5----5---5--0-7--7-7-7-0---7----7---7---7-7---7-7-7-0------|
A|-5----5---5--0-5--5-5-5-0---4----4---4---4-4---4-4-4-0------|
E|-3----3---3-------------------------------------------------|

E|------------------------------------------------------------|
B|------------------------------------------------------------|
G|-5----5---5--5-5---5-5-5-----------------7--7-7--7----------|
D|-5----5---5--5-5---5-5-5-0--5----5---5---7--7-7--7-0--------|
A|-3----3---3--3-3---3-3-3-0--5----5---5-0-5--5-5--5-0--------|
E|----------------------------3----3---3-0--------------------|

E|------------------------------------------------------------|
B|-0----0---0-0-0--0--0-0-0-----------------------------------|
G|-6----6---6-6-6--6--6-6-6-----------------------------------|
D|-7----7---7-7-7--7--7-7-7-----------------------------------|
A|-4----4---4-4-4--4--4-4-4-----------------------------------|
E|------------------------------------------------------------|

                       ~SOLO BUILD UP~
_______________________________________________________________
E|----------------------------19--19b--------------------------|
B|--17/19-19h20-20/22-22-22b-----------------------------------|
G|-------------------------------------------------------------|
D|-------------------------------------------------------------|
A|-------------------------------------------------------------|
E|-------------------------------------------------------------|

SOLO: ~  play this part twice
E|----------------------------------------------------------------|
B|-15b-----------15b-----------15-17b-----------------------------|
G|-----14-16-14------14-16-14-------------------------------------|
D|----------------------------------------------------------------|`x2
A|----------------------------------------------------------------|
E|----------------------------------------------------------------|
         then end with this
E|----------------------------------------------------------------|
B|-15b----------15b----------15-17b-------------------------------|
G|-----14-16-14-----14-16-14--------16-14-12h14-------------------|
D|----------------------------------------------------------------|
A|----------------------------------------------------------------|
E|----------------------------------------------------------------|

E|-------------------------------------12br-----------------------|
B|--12-12br~---------------------------15br-----------------------|
G|-----------14h12~-11~-11br--------------------------------------|
D|---------------------------14b-12b------------------------------|
A|----------------------------------------------------------------|
E|----------------------------------------------------------------|

Bridge:
__________________________________________________________________
E|----------------------------------------------------------------|
B|-----------0---0-0--0-0-0---------------------------------------|
G|-7---7-7---6---6-6--6-6-6---5---5-5-5---------------------------|
D|-7---7-7-0-7---7-7--7-7-7-0-5---5-5-5-0-5---5-5---5-5-5-0-------|`x4
A|-5---5-5-0-4---4-4--4-4-4-0-3---3-3-3-0-5---5-5---5-5-5-0-------|
E|----------------------------------------3---3-3---3-3-3---------|

Pre Chorus: Clean tone
__________________________________________________________________
E|-3-------3--3-------2--2h3---3-2--------------------------------|
B|-3---3---3--3-------3--3-3---3-3--------------------------------|
G|-0---0---0--0-------2--2-2---2-2--------------------------------|
D|-0---0---------0-0--0--0-------0--------------------------------|
A|-2-------------0-0----------------------------------------------|
E|-3--------------------------------------------------------------|


E|-----------0-----0--0--0---------0------------------------------|
B|-----------0-----0--0--0-----------3----------------------------|
G|-----------6-----6--6--6------0------0--------------------------|
D|-0-0--7------7------7--7----2-----------------------------------|
A|-0-0--4-------------4--4--3-------------------------------------|
E|----------------------------------------------------------------|

Clean Chorus:
__________________________________________________________________
E|-3---3-3----2h3------------------------------0--0-0--0----------|
B|-3---3-3----3-3-3----0-0--0--5------5--------3--3-3--3----------|
G|-0---0-0----2-2-2-0--6-6--6------------------0--0-0--0----------|
D|-0---0-0-0--0-0-0-0--7-7--7----7------7----0-2--2-2--2----------|
A|-2---2-2-0-----------4-4--4------4------4--0-3--3-3--3----------|
E|-3---3-3--------------------------------------------------------|

E|---3--3-3-3---2-2h3---0--0-0--0-0-0---|Distortion|--------------|
B|---3--3-3-3---3-3-3---3--3-3--3-3-3---|----------|--------------|
G|---0--0-0-0---2-2-2-0-0--0-0--0-0-0---|----paw---|-5-5-5-5-5-5--|
D|-0-0--0-0-----------0-2--2-2--2-2-2-0-|---muted--|-5-5-5-5-5-5--|
A|-0-2--2-2-----------0-3--3-3--3-3-3-0-|----------|-3-3-3-3-3-3--|
E|---3--3-3-----------------------------|----------|--------------|

E|-----------------|
B|-----------------|
G|-5/7--7/9--11----|
D|-x/x--x/x--x--0--| play the chorus right after the 2 open notes,
A|-3/5--5/7--9--0--|
E|-----------------|

and END WITH THIS

E|-3--3-3---3--3-3-3-------3--3-3---3--3-3-3----------|
B|-3--3-3---3--3-3-3-------3--3-3---3--3-3-3----------|
G|-0--0-0---0--0-0-0-------0--0-0---0--0-0-0----------|
D|-0--0-0-0-0--0-0-0-------2--2-2-0-0--0-0-0----------|`x2
A|-2--2-2-0-0--0-0-0-------3--3-3-0-2--2-2-2h3p0------|
E|-3--3-3---2--2-2-2h3p0------------------------------|

Finaly the END!!! wow i had a loooong fun time figureing that song out! 
It may be easy now,but not when you start from scratch!!! Sheesh!
Suggest correction
comments
print report bad tab
5 comments total. Showing first comments.
0 reply
SJCzka 50 Jan 31, 2005 12:00 AM

Wow three people voted, and not a one told me what they thought!?

0 reply
ryanph2421 10 Feb 22, 2006 08:48 PM

is tab rocks dude

0 reply
ryanph2421 10 Feb 22, 2006 08:49 PM

this**

guest
You may want to rate the tab now too:
select rating
Wanna post a correction for this tab? Suggest correction