Oops, an error
Loading. Please wait.

Dont Stop Dancing Tab

version 5
version 5

Whole song

Interactive

17,551 views 12 this week
1 commentread comment
1 2 3 4 5
excellent!
x 5
add to favorites
launch autoscroll
font size
0
reset
how to read this tab
guitar tuner
Autoscroll
slow
fast
+/-
esc
set tempo
stop
Help us to improve Ultimate-Guitar.com Take our survey!
×
Author
Difficulty
intermediate
Gtr I (E A D G B E) - 'Untitled'
Gtr II (E A D G B E) - 'Untitled'
Gtr III (E A D G B E) - 'Untitled'
Gtr IV (E A D G B E) - 'Untitled'


 Verse
  Slowly Q=69
  G/B      Dadd4/F#      Cadd9    G/B    Gsus2/A
 4/4
  Gtr I
  E. S +E  E +Q   S E.   E. S +E  E +Q   S E S
|-3--3-(3)-3-(3)--3-3--|-3--3-(3)-3-(3)--3-3-3-|
|-3--3-(3)-3-(3)--3-3--|-3--3-(3)-3-(3)--3-3-3-|
|-0--0-(0)-0-(0)--0-0--|-0--0-(0)-0-(0)--0-0-0-|
|-0--0-(0)-0-(0)--0-0--|-2--2-(2)-0-(0)--0-0-0-|
|-2--2-(2)-0-(0)--0-0--|-3--3-(3)-2-(2)--2-0-0-|
|----------2-(2)--2-2--|-----------------------|


  G/B      Dadd4/F#      Cadd9    G/B          Gsus2/A
 4/4
  Gtr I
  E. S +E  E +Q   S E.   E. S +E  E +Q         S E   S
|-3--3-(3)-3-(3)--3-3--|-3--3-(3)-3-(3)--------3-3---3-|
|-3--3-(3)-3-(3)--3-3--|-3--3-(3)-3-(3)--------3-3---3-|
|-0--0-(0)-0-(0)--0-0--|-0--0-(0)-0-(0)--------0-0---0-|
|-0--0-(0)-0-(0)--0-0--|-2--2-(2)-0-(0)--------0-0---0-|
|-2--2-(2)-0-(0)--0-0--|-3--3-(3)-2-(2)--------2-0---0-|
|----------2-(2)--2-2--|-------------------------------|
|
| Gtr II
| W                      H           S   S S S S S S S
|----------------------|-----------------------0-------|
|----------------------|-------------------------8---0-|
|----------------------|---------------------0-----0---|
|----------------------|-------------------9-----------|
|----------------------|----------------10-------------|
|----------------------|-------------------------------|


  G        Dadd4/F#            Cadd9        G/B
  E. S S S E +S  S S S S E S    E.  S  S  S  E   S   S S S E   S S
|-3--3-3-3-3-(3)-3-3-3-3-3-3-|--3---3--3--3--3---3---3-3-3-3---3-3-||
|-3--3-3-3-3-(3)-3-3-3-3-3-3-|--3---3--3--3--3---3---3-3-3-3---3-3-||
|-0--0-0-0-0-(0)-0-0-0-0-0-0-|--0---0--0--0--0---0---0-0-0-0---0-0-||
|-0--0-0-0-0-(0)-0-0-0-0-0-0-|--2---2--2--2--0---0---0-0-0-0---0-0-||
|-2--2-2-2-0-(0)-0-0-0-0-0---|--3---3--3--3--2---2---2-2-2-2---2-2-||
|-3--3-3-3-2-(2)-2-2-2-2-2---|-------------------------------------||
|
| E. S S S E +S  S S S S E S    E.  S  S  S  E  +S   S S S S S S S
|----0-0-0-------------0-----|--0---0--0--0----------------0-------||
|----0-0-0-3-(3)---------3-0-|--0---0--0--0--8--(8)----------8-0-0-||
|----4-4-4-0-(0)-----0-------|--9---9--9--9--0--(0)------0-----0-0-||
|----5-5-5-4-(4)---4---------|-10--10-10-10--9--(9)----9-------0-0-||
|-5--------5-(5)-5-----------|-10--10-10-10-10-(10)-10-------------||
|----------------------------|-------------------------------------||


 Pre-Chorus
  $
  Asus2   Am  Asus2         Cadd9
  Gtrs I, II
  Q  E. S S S E +S  S S S   E S S E S S S S E S S S S
|-0--0--0---0-0-(0)-0-----|---0-0-0-0-0-0-0-0-0-0-----|
|-0--0--0h1-1-0-(0)-0-----|-0-3-3-3-3-3-3-3-3-3-3-0-0-|
|-2--2--2---2-2-(2)-2-0-0-|-0-0-0-0-0-0-0-0-0-0-0-0-0-|
|-2--2--2-----2-(2)-2-0-0-|-2-2-2-2-2-2-2-2-2-2-2-0-0-|
|-0--0--0-----0-(0)-0-0-0-|-3-3-3-3-3-3-3-3-3-3-3-0-0-|
|-------------------------|---------------------------|


  Emadd9                    Cadd9
  Gtrs I, II
  Q  S  E S S S E S S S S   E S S E  S S S S S S E   S S
|-0--0--0-0-0-0-0-0-0-----|-0-0-0-0--0-0-0-0-0-0-0---0-0-||
|-1--0--0-0-0-0-0-0-0-0-0-|-0-0-0-0--0-0-0-0-0-0-0---0-0-||
|-0--0--0-0-0-0-0-0-0-0-0-|-0-0-0-0--0-0-0-0-0-0-0---0-0-||
|-4--4--4-4-4-4-4-4-4-0-0-|-2-2-2-2--2-2-2-2-2-2-2-------||
|-2--2--2-2-2-2-2-2-2-0-0-|-3-3-3-3--3-3-3-3-3-3-3-------||
|-0--0--0-0-0-0-0-0-0-----|------------------------------||
|
| Gtr III
| Q  E.   S S S E S S S S   Q     E.   S S S S S S S S S
|-------------------------|------------------------------||
|-------------------------|-0----------------------------||
|-0--0----0-0-0-0-0-0-0-0-|-0-----5----5-5-5-5S7-7-7-7---||
|-4--4----4-4-4-4-4-4-0-0-|-2-----5----5-5-5-x---x-x-x---||
|-2--2----2-2-2-2-2-2-0-0-|-3-----3----3-3-3-3S5-5-5-5---||
|-0--0----0-0-0-0-0-0-----|----------------------------3-||


 Chorus
  G       D5/A              Aadd9/C#
  Gtr III
  Q  E. S S S E +S  S S S   Q  E. S +S  S E S S S S
|-------------------------|-0--0--0-(0)-0-0-0-0-0---|
|-----------3-3-(3)-3-3---|-0--0--0-(0)-0-0-0-0-0---|
|-0--0--0---2-2-(2)-2-2-0-|-6--6--6-(6)-6-6-6-6-6-0-|
|-0--0--0-0-0-0-(0)-0-0-0-|-7--7--7-(7)-7-7-7-7-7-0-|
|-2--2--2-0-0-0-(0)-0-0-0-|-4--4--4-(4)-4-4-4-4-4-3-|
|-3--3--3-----------------|-------------------------|


                                       To Coda
  Cadd9                   G       D5/A            Aadd9/C#
  Q  E. S S S E S S S S   Q  E. S S S E +E  S S   Q  E. S S S E S S S S
|-----------------------|-----------------------|-0--0--0-0-0-0-0-0-0----|
|-3--3--3-3-3-3-3-3-3---|-0--0--0---3-3-(3)-3---|-0--0--0-0-0-0-0-0-0----|
|-0--0--0-0-0-0-0-0-0---|-0--0--0---2-2-(2)-2---|-6--6--6-6-6-6-6-6-6----|
|-2--2--2-2-2-2-2-2-2-0-|-0--0--0---0-0-(0)-0---|-7--7--7-7-7-7-7-7-7----|
|-3--3--3-3-3-3-3-3-3-0-|-2--2--2-0---0-(0)-0-0-|-4--4--4-4-4-4-4-4-4-3--|
|-----------------------|-3--3--3-0-----------0-|------------------------|


             Interlude
  C5          G6/D    Dadd4
  Gtrs I, II
  W            E. S E E +S  S S S S S S S
|----------||--0--0---------------0-------|
|----------||--0--0---3-(3)---------3-0-0-|
|----------||--4--4-0-0-(0)-----0-----0-0-|
|----------||--5--5-4-4-(4)---4-------0-0-|
|----------||--5----5-5-(5)-5-------------|
|----------||-----------------------------|
|
| Gtr III
|              >
| W           +H.                 Q
|----------||-----------------------------|
|-1--------||-(1)-------------------------|
|-0--------||-(0)-------------------------|
|----------||-----------------------------|
|-3--------||-(3)-------------------------|
|----------||-----------------------------|


  Cmaj7/G      G
   E.  S  S  S  E  +S   S S S S S S S
|--0---0--0--0----------------0-------|
|--0---0--0--0--8--(8)----------8-----|
|--9---9--9--9--0--(0)------0-----0---|
|-10--10-10-10--9--(9)----9---------0-|
|-10--10-10-10-10-(10)-10-------------|
|-------------------------------------|
|
|  W
|-------------------------------------|
|-------------------------------------|
|-------------------------------------|
|-------------------------------------|
|-------------------------------------|
|-------------------------------------|


   Verse
                                                       D.S. al Coda
    G6/D   Dadd4                 Cmaj7/G      G
    Gtrs I, II
    E. S E E +S  S S S S S S S    E.  S  S  S  E  +S   S S S S S S S  4x
||--0--0---------------0-------|--0---0--0--0----------------0--------||
||o-0--0---3-(3)---------3-0-0-|--0---0--0--0--8--(8)----------8-----o||
||--4--4-0-0-(0)-----0-----0-0-|--9---9--9--9--0--(0)------0-----0----||
||--5--5-4-4-(4)---4-------0-0-|-10--10-10-10--9--(9)----9---------0--||
||o-5----5-5-(5)-5-------------|-10--10-10-10-10-(10)-10-------------o||
||-----------------------------|--------------------------------------||


  &
  Aadd9/C#
  Gtr IV
      ~~~         ~~~~~~~
   S  E.  +E   S  S  +Q.          S  S
|-10S12--(12)-12S14-(14)---------14S15-|
|--------------------------------------|
|--------------------------------------|
|--------------------------------------|
|--------------------------------------|
|--------------------------------------|
|
| Gtr III
|  Q       E.     S   S  S E S S  S  S
|--0-------0------0---0--0-0-0-0-------|
|--0-------0------0---0--0-0-0-0-------|
|--6-------6------6---6--6-6-6-6--0--0-|
|--7-------7------7---7--7-7-7-7--x--x-|
|--4-------4------4---4--4-4-4-4--3--3-|
|--------------------------------------|


  C
   +E   a     E    +S   a     E.    a      E.     S     Q
|-(15)-15b17-17---(17)-15b17-17----17b19==19r====17b19-19-------||
|---------------------------------------------------------------||
|---------------------------------------------------------------||
|---------------------------------------------------------------||
|---------------------------------------------------------------||
|---------------------------------------------------------------||
|
|   E.          S   E.           S         S S S  S     S S S S
|---------------------------------------------------------------||
|---1-----------1---1------------1---------1-1-1--1-----1-1-1---||
|---0-----------0---0------------0---------0-0-0--0-----0-0-0---||
|---2-----------2---2------------2---------2-2-2--2-----2-2-2---||
|---3-----------3---3------------3---------3-3-3--3-----3-3-3---||
|-------------------------------------------------------------0-||


 Guitar Solo
  G            D/F#                           G5
   ~~~          ~~
   E.  S  S  S  E  +S   S  S  S  S  a      E.
|-------------------------------------------------|
|-15-----------15-(15)----------15-15b17rS17------|
|-----14-16-14---------14-16-14-------------------|
|-------------------------------------------------|
|-------------------------------------------------|
|-------------------------------------------------|
|
|  E.  S  S  S  E  +S   S  S  S  S         S  S S
|-------------------------------------------------|
|--0---0--0--0--3--(3)--3--3--3-------------------|
|--0---0--0--0--2--(2)--2--2--2---------------0-0-|
|--0---0--0--0--0--(0)--0--0--0--0------------0-0-|
|--2---2--2--2--x--(x)--x--x--x--x------------x-0-|
|--3---3--3--3--2--(2)--2--2--2--2h========3--3---|


  C            G/B                            C5
   ~~~          ~~
   E.  S  S  S  E  +S   S  S  S  S  a      E.
|-------------------------------------------------|
|-15-----------15-(15)----------15-15b17rS17------|
|-----14-16-14---------14-16-14-------------------|
|-------------------------------------------------|
|-------------------------------------------------|
|-------------------------------------------------|
|
|  E.  S  S  S  E  +S   S  S  S  S         S  S S
|-------------------------------------------------|
|--1---1--1-----0--(0)--0--0--0--0----------------|
|--0---0--0-----0--(0)--0--0--0--0------------0---|
|--2---2--2-----x-------x--x--x--x------------x---|
|--3---3--3p=0--2--(2)--2--2--2--2h========3--3-0-|
|-----------------------------------------------0-|


  G            D/F#                          G5
   ~~~          ~~
   E.  S  S  S  E  +S   S  S  S  S  a      S  S  S
|--------------------------------------------------|
|-15-----------15-(15)----------15-15b17rS17-------|
|-----14-16-14---------14-16-14--------------16p14-|
|--------------------------------------------------|
|--------------------------------------------------|
|--------------------------------------------------|
|
|  E.  S  S  S  E  +S   S  S  S  S         S  S  S
|--------------------------------------------------|
|--0---0--0--0--3--(3)--3--3--3--------------------|
|--0---0--0--0--2--(2)--2--2--2---------------0--0-|
|--0---0--0--0--0--(0)--0--0--0--0------------0--0-|
|--2---2--2--2--x--(x)--x--x--x--x------------x--0-|
|--3---3--3--3--2--(2)--2--2--2--2h========3--3----|


  C                             G/B       C5    G         D/F#              G5
   ~~~                                           ~~~
   Q     +S  S  S  S     +H                      Q.        E  +Q.            S      S
|---------------------------------------------|-----------------------------------------|
|--------------12-----------------------------|-----------------------------------------|
|-12----(12)14----14b15-(14)b15---------------|-12--------11-(11)-----------11b13==12r==|
|---------------------------------------------|-----------------------------------------|
|---------------------------------------------|-----------------------------------------|
|---------------------------------------------|-----------------------------------------|
|
|  E. S   S  S  E        +S     S S S S S S S    E. S S S  E  +S  S S S S S  S      S
|---------------------------------------------|-----------------------------------------|
|--1--1---1-----0--------(0)----0-0-0-0-------|--0--0-0-0--3--(3)-3-3-3-----------------|
|--0--0---0-----0--------(0)----0-0-0-0---0---|--0--0-0-0--2--(2)-2-2-2------0------0---|
|--2--2---2-----x---------------x-x-x-x---x---|--0--0-0-0--0--(0)-0-0-0-0----0------0---|
|--3--3---3p=0--2--------(2)----2-2-2-2h3-3-0-|--2--2-2-2--x--(x)-x-x-x-x----x------0---|
|-------------------------------------------0-|--3--3-3-3--2--(2)-2-2-2-2h3--3----------|


  C               G/B                      C5
   S   E.    +E    E  +E.      a  S  +E.      S
|--------------------------------12-(12)--------||
|-----------------------------15S17-(17)S====15-||
|-11--------------------------------------------||
|-----14----(14)--12-(12)-----------------------||
|-----------------------------------------------||
|-----------------------------------------------||
|
|  E.     S   S S  E  +S  S S     S   S  S S  S
|-----------------------------------------------||
|--1------1---1----0--(0)-0-0-----0---0---------||
|--0------0---0----0--(0)-0-0-----0---0----0----||
|--2------2---2----x------x-x-----x---x----x----||
|--3------3---3p0--2--(2)-2-2-----2---2h=3-3--0-||
|---------------------------------------------0-||


 Bridge
  D5/A      Aadd9/C#            C          G
                                  >
   W                             +W
|-----------------------------|------------------------------|
|-15--------------------------|-(15)-------------------------|
|-----------------------------|------------------------------|
|-----------------------------|------------------------------|
|-----------------------------|------------------------------|
|-----------------------------|------------------------------|
|
|  E. S S S E +S  S E S S S S     E. S S S E +S  S E S S S S
|-----------0-(0)-0-0-0-0-0---|------------------------------|
|--3--3-3---0-(0)-0-0-0-0-0-1-|---1--1-1---0-(0)-0-0-0-0-0---|
|--2--2-2---6-(6)-6-6-6-6-6-0-|---0--0-0---0-(0)-0-0-0-0-0---|
|--0--0-0---7-(7)-7-7-7-7-7-x-|---2--2-2---0-(0)-0-0-0-0-0-0-|
|--0--0-0-0-4-(4)-4-4-4-4-4-3-|---3--3-3p0-2-(2)-2-2-2-2-2-0-|
|-----------------------------|------------3-(3)-3-3-3-3-3---|


                                 1.,2.
    D5/A     Aadd9/C#  C5             G
    E. S S S E +S  S E S S S S   E. S S S E +S  S E S S S S
||-----------0-(0)-0-0-0-0-0---|-----------------------------||
||o-3--3-3---0-(0)-0-0-0-0-0-1-|-1--1-1---0-(0)-0-0-0-0-0---o||
||--2--2-2---6-(6)-6-6-6-6-6-0-|-0--0-0---0-(0)-0-0-0-0-0----||
||--0--0-0---7-(7)-7-7-7-7-7-x-|-2--2-2---0-(0)-0-0-0-0-0-0--||
||o-0--0-0-0-4-(4)-4-4-4-4-4-3-|-3--3-3p0-2-(2)-2-2-2-2-2-0-o||
||-----------------------------|----------3-(3)-3-3-3-3-3----||


                          Pre-Chorus
  3.
  C                        G
                        Gtrs I, II
  Q  E. S S S E S S S S    Q  E. S +S  S E S S S S
|-----------------------||-3-----3-(3)-3-----3-----|
|-1--1--1-1-1-1-1-1-1-0-||-3--3--3-(3)-3-----3-----|
|-0--0--0-0-0-0-0-0-0-0-||-0--0--0-(0)-0-----0-0-0-|
|-2--2--2-2-2-2-2-2-2-0-||-0--0----------0-0---0-0-|
|-3--3--3-3-3-3-3-3-3---||-2-------------2-2---0-0-|
|-----------------------||-3-----------------------|


  D                          Aadd9/C#
  Q  E S S +S  S E S S S S   E. S +E  S S +S  S E S S S S
|-2--2---3-(3)-3-2---2-----|----0-(0)---0-(0)---0-0-0-----|
|-3--3---3-(3)-3-3---3-0-0-|----0-(0)---0-(0)---0-0-0-----|
|-2--2---2-(2)-2-2---2-0-0-|----6-(6)-----------6-6---6-5-|
|-0--0-0---------0-0---0-0-|-7--------7-------7-7-7---7---|
|--------------------------|-4------------------4-4---4---|
|--------------------------|------------------------------|


                           Chorus
  Cadd9                     G           D     Dsus4
                            Gtr I
  S S S S +S  S E +H        Q  E. S S S E +S  S S S
|-------0-(0)------------||-3--3--3-----2-(2)-3-----|
|-------------3----------||-3--3--3---0-3-(3)-3-0-0-|
|-----0---------0-(0)----||-0--0--0-0-0-2-(2)-2-0-0-|
|---2--------------------||-0--0--0-0-0-0-(0)-0-0-0-|
|-3----------------------||-2--2--2-0---------0-0-0-|
|------------------------||-3--3--3-----------------|


  Aadd9/C#
  E S S E. S +S  S S S +S  S S S
|-------0--0-(0)-0---0-(0)---------|
|---0-0-0--0-(0)-0---------0-------|
|---6-6-6--6-(6)-6-----------6-----|
|-7-7-7-7--7-(7)---------------0---|
|-4-----4----------4---------------|
|----------------------------------|


  Cadd9                      G5             D     Dsus4
  E S S E. S S S E S S S S   E S S E. S S S E +S  S S S
|--------------------------|-3-3-3-3--3-----2-(2)-3-----|
|---3-3-3--3-3-3-3-3-3-3-0-|-3-3-3-3--3-----3-(3)-3---0-|
|---0-0-0--0-0-0-0-0-0-0-0-|-0-0-0-0--0-----2-(2)-2---0-|
|---2-2-2--2-2-2-2-2-2-2-0-|-0-0-0-0--0-0-0-0-(0)---0-0-|
|-3-3-3-3--3-3-3-3-3-3-3-0-|-2-2-2-2----0-0---------0-0-|
|--------------------------|-3-3-3-3--------------------|


  Gtr I                       Gtr III
                                PM--------------|
  E S S E S S  S  S E S S S S   S S S S S S S S S S S S S S S  S
|-----------------------------|----------------------------------||
|-3-3-3-3-3-3--3--3-3-3-3-3-3-|----------------------------------||
|-0-0-0-0-0-0--0--0-0-0-0-0-0-|-5-5-5-5-5-5-5-5-5-7-7-7-7-9-9-12-||
|-2-2-2-2-2-2--2--2-2-2-2-2-2-|-5-5-5-5-5-5-5-5-5-x-x-x-x---x----||
|-3-3-3-3-3-3--3--3-3-3-3-3-3-|-3-3-3-3-3-3-3-3-3-5-5-5-5S7-7S10-||
|-----------------------------|----------------------------------||
|
| Gtr II
| E S S E S S +S  S E S S S S   W
|---0-0-0-0-0-(0)-0-0-0-0-0-0-|----------------------------------||
|---0-0-0-0-0-(0)-0-0-0-0-0-0-|----------------------------------||
|---0-0-0-0-0-(0)-0-0-0-0-0-0-|----------------------------------||
|---2-2-2-2-2-(2)-2-2-2-2-2-2-|----------------------------------||
|---3-3-3-3-3-(3)-3-3-3-3-3-3-|----------------------------------||
|-----------------------------|----------------------------------||


   Chorus
    G       D5/A              Aadd9/C#
    Gtr III
    Q  E. S S S E +S  S S S   Q  E. S +S  S E S S S S
||--------------------------|-0--0--0-(0)-0-0-0-0-0---|
||o-----------3-3-(3)-3-3---|-0--0--0-(0)-0-0-0-0-0---|
||--0--0--0---2-2-(2)-2-2-0-|-6--6--6-(6)-6-6-6-6-6-0-|
||--0--0--0-0-0-0-(0)-0-0-0-|-7--7--7-(7)-7-7-7-7-7-0-|
||o-2--2--2-0-0-0-(0)-0-0-0-|-4--4--4-(4)-4-4-4-4-4-3-|
||--3--3--3-----------------|-------------------------|


  Cadd9                   G       D5/A
  Q  E. S S S E S S S S   Q  E. S S S E +E  S S
|-----------------------|-----------------------|
|-3--3--3-3-3-3-3-3-3---|-0--0--0---3-3-(3)-3---|
|-0--0--0-0-0-0-0-0-0---|-0--0--0---2-2-(2)-2---|
|-2--2--2-2-2-2-2-2-2-0-|-0--0--0---0-0-(0)-0---|
|-3--3--3-3-3-3-3-3-3-0-|-2--2--2-0---0-(0)-0-0-|
|-----------------------|-3--3--3-0-----------0-|


  Aadd9/C#          C
  Q  E. S S S E S S S S   E. S E. S S S S S S S S S
|-0--0--0-0-0-0-0-0-----|----------------------------||
|-0--0--0-0-0-0-0-0-----|-1--1-1--1-1-1-1-1-1-1-1---o||
|-6--6--6-6-6-6-6-6-0-0-|-0--0-0--0-0-0-0-0-0-0-0----||
|-7--7--7-7-7-7-7-7-x-x-|-2--2-2--2-2-2-2-2-2-2-2----||
|-4--4--4-4-4-4-4-4-3-3-|-3--3-3--3-3-3-3-3-3-3-3---o||
|-----------------------|-------------------------0--||


 Outro
  G/B      D/F#                  Cadd9    G/B
  Gtr I
  E. S S S E +S  S S S S S S S   E. S S S E +S  S S S S S S S
|-3--3-3-3---------------------|------------------------------|
|-3--3-3-3---------------------|-3--3-3---3-(3)-3-3-3-3---3---|
|-0--0-0-0---------------------|-0--0-0-0-0-(0)-0-0-0-0---0-0-|
|-0--0-0-0-0-(0)-0-0-0-0---0---|-2--2-2-0-0-(0)-0-0-0-0---0-0-|
|-2--2-2-2-0-(0)-0-0-0-0---0-0-|-3--3-3-0-2-(2)-2-2-2-2h3-2-0-|
|----------2-(2)-2-2-2-2h3-2-0-|------------------------------|


                                 H.=H
           D/F#                  Cadd9  G/B
  E. S S S E +S  S S S S S S S   E. S E E +H       +W
|-3--3-3-----------------------|----3------------|--------*|
|-3--3-3-----------------------|-3--3-3-3-(3)----|-(3)----*|
|-0--0-0-0---------------------|-0--0-0-0-(0)----|-(0)----*|
|-0--0-0-0-0-(0)-0-0-0-0---0-0-|-2--2-2-0-(0)----|-(0)----*|
|-2--2-2-0-0-(0)-0-0-0-0---0-0-|-3----3-2-(2)----|-(2)----*|
|----------2-(2)-2-2-2-2h3-2-0-|-----------------|--------*|




--------------------------------------------------------------------------------


Duration Legend
---------------
W - whole; H - half; Q - quarter; E - 8th; S - 16th; T - 32nd; X - 64th; a - acciaccatura
+ - note tied to previous; . - note dotted; .. - note double dotted
Uncapitalized letters represent notes that are staccato (1/2 duration)
Irregular groupings are notated above the duration line
Duration letters will always appear directly above the note/fret number it represents the
duration for.  Duration letters with no fret number below them represent rests.  Multi-
bar rests are notated in the form Wxn, where n is the number of bars to rest for.  Low
melody durations appear below the staff

Tablature Legend
----------------
 h   - hammer-on
 p   - pull-off
 b   - bend
 pb  - pre-bend
 r   - bend release (if no number after the r, then release immediately)
 /\  - slide into or out of (from/to "nowhere")
 s   - legato slide
 S   - shift slide
 - natural harmonic
[n]  - artificial harmonic
n(n) - tapped harmonic
 ~   - vibrato
 tr  - trill
 T   - tap
 TP  - trem. picking
 PM  - palm muting
\n/  - tremolo bar dip; n = amount to dip
 \n  - tremolo bar down
 n/  - tremolo bar up
/n\  - tremolo bar inverted dip
 =   - hold bend; also acts as connecting device for hammers/pulls
 <> - volume swell (louder/softer)
 x   - on rhythm slash represents muted slash
 o   - on rhythm slash represents single note slash

Misc Legend
-----------
 |  - bar
||  - double bar
||o - repeat start
o|| - repeat end
*|  - double bar (ending)
 :  - bar (freetime)
 $  - Segno
 &  - Coda
Tempo markers -  = BPM(8/16=s8/s16), where s8 = swing 8ths, s16 = swing 16ths


Suggest correction
comments
print report bad tab
1 comment total.
0 reply
zeppelin_23 10 wrote on August 7 2008, 06:20 pm

simply perfect

guest
You may want to rate the tab now too:
select rating
Please do not post tabs as comments. Select "correction" instead!