Oops, an error
Loading. Please wait.

Fear Bass Tab

version 1
version 1

Whole song

Interactive

158 views 1 this week
no commentswrite comment
1 2 3 4 5
please rate
add to favorites
launch autoscroll
font size
0
reset
guitar tuner
Tab Pro tools
  • play this tab
  • loop segment
  • change instrument
  • show fretboard
  • metronome
×
Best way to learn
"Fear"
Autoscroll
slow
fast
+/-
esc
set tempo
stop
Contributor
Difficulty
Tuning
intermediate
B E A D F# B
Creed - Fear
From the 'Full Circle' Album
5 string Bass tuning
tabbed by jjhand

Fear is probably the most aggressive sounding song on Full Circle. This 
tricky fast paced song has the bass playing in unison with Mark Tremonti's
fast sixteenths in each riff so its quite challenging. Please rate/comment.

Intro
G|------------|------------|-------------|--------------------------------|
D|------------|------------|-------------|--------------------------------|
A|------------|------------|-------------|--------------------------------|
E|-7----------|-7----------|-7-----------|-7-6-5-----5---------5----------|
B|-0----------|-0----------|-0-----------|-------5-----6-5-4-----4-3-3-1--|

Intro, Part 2:
   play 3x
G|-----------------------|      --------------------------------|         
D|-----------------------|      --------------------------------|
A|-----------5-----------|      --------------------------------|
E|-------------7---7-----|      -7-6-5-----5---------5----------|
B|-0----0----------------|      -------5-----6-5-4-----4-3-3-1--|





Verse 1 - play 2x
G|----------------------|------------------------|----------------------|
D|----------------------|------------------------|----------------------|
A|----------------------|------------------------|----------------------|
E|-----------5----------|-10-------------5-------|-----------5----------|
B|-0----0------0---0----|----0---0----0------6---|-0----0------0---0----|

|--------------------------------|
|--------------------------------|
|--------------------------------|
|-7-6-5-----5---------5----------|
|-------5-----6-5-4-----4-3-3-1--|



Prechorus -

G|----------------------|------------------------|
D|----------------------|------------------------|
A|----------------------|------------------------|
E|----------------------|------------------------|
B|-5----5----5--5----3--|-(3)---3-----3-3-3-5----|

|----------------------|------------------------|
|----------------------|------------------------|
|----------------------|------------------------|
|-----------5----------|-10-------------5-------|
|-0----0------0---0----|----0---0----0------6---|

|----------------------|------------------------|
|----------------------|------------------------|
|----------------------|------------------------|
|----------------------|------------------------|
|-5----5----5--5----3--|-(3)------------3/15\---|





Chorus - Don't use PM on 3rd time through

   play 3x
G|-----------------------|---------------------------|
D|-----------------------|---------------------------|
A|-----------------------|---------------------------|
E|---------------5--5--3-|-3----3--------------------|
B|-0----0----0-----------|-----------3-1-0-3---0-5-3-|
                                  PM * * *     * * *

Chorus Ending
G|-----------------------|--------------------------|------------------|
D|-----------------------|--------------------------|------------------|
A|-----------------------|--------------------------|------------------|
E|---------------5--5--3-|-3----3-------------------|------------------|
B|-0----0----0-----------|-----------3-1-0-3----5-3-|-5----------/12\--|







Play Intro Part 2 Again

Play Verse Riff Again (1:18)

Play Prechorus Again

Play Chorus Again (1:49)


2:10-2:19, no bass 


Bridge (2:19)

   play 2x
G|--------------------|----------------------|
D|--------------------|----------------------|
A|--------------------|----------------------|
E|--------------------|----------------------|
B|-0--------6----5----|-3----5----4----3--1--|


   play 4x
|---------------------------------|-------------------------------------|
|---------------------------------|-------------------------------------|
|---------------------------------|-------------------------------------|
|-------------2-5-3---3-3-3-3-2---|-------------------------------------|
|-0---0-0-0-0-------------------5-|-3---3-3-3-3-5-6-7---7-7-7-7-7-5-3---|


Bridge Ending
|------------------------|----------------------|----------------|
|------------------------|----------------------|----------------|
|------------------------|----------------------|----------------|
|------------------------|----------------1-----|----------------|
|-1--0-----3--1--0-----3-|-1--0-1--0-1--0----1--|-0--------------|

No bass until Chorus starts again





Final Chorus - start with slide at end of prechorus and play Chorus Riff again




Play Intro Part 2 riff

Play Bridge Ending to end song 


Key:

/   slide up
\   slide down
()  hold note from previous bar
PM  palm mute
comments
We did not receive enough feedback on this tab! Please rate:
print report bad tab
1 2 3 4 5
I want to post or [tab]
guest
You may want to rate the tab now too:
select rating
Please do not post tabs as comments. Select "correction" instead!