Oops, an error
Loading. Please wait.

Freedom Fighter Tab

version 5
version 5
1,221 views 1 this week
no commentswrite comment
1 2 3 4 5
please rate
add to favorites
launch autoscroll
font size
0
reset
how to read this tab
guitar tuner
Tab Pro tools
  • play this tab
  • loop segment
  • change instrument
  • show fretboard
  • metronome
×
Best way to learn
"Freedom Fighter"
Autoscroll
slow
fast
+/-
esc
set tempo
stop
Contributor
Difficulty
Tuning
intermediate
D A D G B E
Gtr I (D A D G B E) - 'Untitled'
Gtr II (D A D G B E) - 'Untitled'


 Intro
  Moderately Q=157
                Dm7
 3/4
  Gtr I
  E E E S S     Q  E E E E   Q  E E E E   Q  E E E E   Q  E E E E
|-----------||-------------|------------|------------|-------------|
|-----------||o------------|------------|------------|-------------|
|-----------||-------------|------------|------------|-------------|
|-----------||-------------|----------3-|------------|----------3--|
|-----------||o----------3-|----0-3-5---|----------3-|----0-3-5----|
|-x-x-x-x-x-||--0--0-3-5---|-0----------|-0--0-3-5---|-0-----------|


                           1.
  Q  E E E E   Q  E E E E   Q  E E E E   E   +S  S E E E E
|------------|------------|------------|---------------------||
|------------|------------|------------|--------------------o||
|------------|------------|------------|---------------------||
|------------|----------3-|----------0-|-5b6r(5)p3---3-------||
|----------3-|----0-3-5---|------------|-----------5---5-3--o||
|-0--0-3-5---|-0----------|-0--0-3-5---|---------------------||


                                              Verse
  2.
                                               Dm7
                                               PM--------------------|
  E    +Q.    E     +E     E   S S E E E E     Q  E E E E   Q  E E E E
|------------------------|-----------------||-------------|-------------|
|------------------------|-----------------||o------------|-------------|
|------------------------|-----------------||-------------|-------------|
|-5b6==(5)r---5pb6==(5)r-|-5b7r5p3---3-----||-------------|----------3--|
|------------------------|---------5---5-3-||o----------3-|----0-3-5----|
|------------------------|-----------------||--0--0-3-5---|-0-----------|


  PM----------------------------------------------|
  Q  E E E E   Q  E E E E   Q  E E E E   Q  E E E E
|------------|------------|------------|------------|
|------------|------------|------------|------------|
|------------|------------|------------|------------|
|------------|----------3-|------------|----------3-|
|----------3-|----0-3-5---|----------3-|----0-3-5---|
|-0--0-3-5---|-0----------|-0--0-3-5---|-0----------|


  PM-------|                       PM--------------------|
  Q  E E E E   E   +S  S E E E E   Q  E E E E   Q  E E E E
|------------|-------------------|------------|-------------|
|------------|-------------------|------------|-------------|
|------------|-------------------|------------|-------------|
|----------0-|-5b6r(5)p3---3-----|------------|----------3--|
|------------|-----------5---5-3-|----------3-|----0-3-5----|
|-0--0-3-5---|-------------------|-0--0-3-5---|-0-----------|


  PM----------------------------------------------|
  Q  E E E E   Q  E E E E   Q  E E E E   Q  E E E E
|------------|------------|------------|------------|
|------------|------------|------------|------------|
|------------|------------|------------|------------|
|------------|----------3-|------------|----------3-|
|----------3-|----0-3-5---|----------3-|----0-3-5---|
|-0--0-3-5---|-0----------|-0--0-3-5---|-0----------|


  E    +Q.    E     +E     E   S S E E E E
|------------------------|-----------------||
|------------------------|-----------------||
|------------------------|-----------------||
|-5b6==(5)r---5pb6==(5)r-|-5b7r5p3---3-----||
|------------------------|---------5---5-3-||
|------------------------|-----------------||


 Interlude
 1.
  D5             C5             G/B
  Q.   E +E  E   Q.   E +E  E   Q.   E +E  E
|--------------|--------------|--------------|
|-3----3-(3)-3-|--------------|--------------|
|-2----2-(2)-2-|-5----5-(5)-5-|-4----4-(4)-4-|
|-0----0-(0)-0-|-5----5-(5)-5-|-5----5-(5)-5-|
|-0----0-(0)-0-|-3----3-(3)-3-|-2----2-(2)-2-|
|-0----0-(0)-0-|--------------|--------------|


  G5     F#5  F5             A5             E5             G5F5D5F5
                                                               PM
  Q.   E Q    Q.   E +E  E   Q.   E +E  E   Q.   E +E  E   E E E E +E  E
|-----------|--------------|--------------|--------------|-----------------||
|-----------|--------------|--------------|--------------|----------------o||
|-7----7-6--|-5----5-(5)-5-|-9----9-(9)-9-|-4----4-(4)---|-7-5---5-(5)-5---||
|-5----5-4--|-3----3-(3)-3-|-7----7-(7)-7-|-2----2-(2)---|-5-3-0-3-(3)-3---||
|-5----5-4--|-3----3-(3)-3-|-7----7-(7)-7-|-2----2-(2)---|-5-3-0-3-(3)-3--o||
|-5----5-4--|-3----3-(3)-3-|-7----7-(7)-7-|-2----2-(2)-0-|-5-3-0-3-(3)-3---||


 Chorus
  2.
  $
  D5             C5             G/B            G5     F#5
  Q.   E +E  E   Q.   E +E  E   Q.   E +E  E   Q.   E Q
|--------------|--------------|--------------|-----------|
|-3----3-(3)-3-|--------------|--------------|-----------|
|-2----2-(2)-2-|-5----5-(5)-5-|-4----4-(4)-4-|-7----7-6--|
|-0----0-(0)-0-|-5----5-(5)-5-|-5----5-(5)-5-|-5----5-4--|
|-0----0-(0)-0-|-3----3-(3)-3-|-2----2-(2)-2-|-5----5-4--|
|-0----0-(0)-0-|--------------|--------------|-5----5-4--|


                                                    To Coda
  F5             A5             E5             G5F5D5F5
                                                   PM
  Q.   E +E  E   Q.   E +E  E   Q.   E +E  E   E E E E +E  E
|--------------|--------------|--------------|---------------|
|--------------|--------------|--------------|---------------|
|-5----5-(5)-5-|-9----9-(9)-9-|-4----4-(4)---|-7-5---5-(5)-5-|
|-3----3-(3)-3-|-7----7-(7)-7-|-2----2-(2)---|-5-3-0-3-(3)-3-|
|-3----3-(3)-3-|-7----7-(7)-7-|-2----2-(2)---|-5-3-0-3-(3)-3-|
|-3----3-(3)-3-|-7----7-(7)-7-|-2----2-(2)-0-|-5-3-0-3-(3)-3-|


    D5                               C5 A5D5G5BbG5
    Gtr I
         PM|        PM|        PM|
    H    E E   H    E E   H    E E    E E E E E E   3x
||-----------|----------|----------|----------------||
||o-3--------|-3--------|-3--------|---------------o||
||--2--------|-2--------|-2--------|----------------||
||--0--------|-0--------|-0--------|-10-7-0-5-8-5---||
||o-0----0-0-|-0----0-0-|-0----0-0-|-10-7-0-5-8-5--o||
||--0----0-0-|-0----0-0-|-0----0-0-|-10-7-0-5-8-5---||


 Interlude
  D5                                     C5 A5D5G5BbG5
  PM---------------------------------|
  Q.   E E E   Q.   E E E   Q.   E E E    E E E E E E
|------------|------------|------------|--------------|
|------------|------------|------------|--------------|
|------------|------------|------------|--------------|
|------------|------------|------------|-10-7-0-5-8-5-|
|-0----0-0-0-|-0----0-0-0-|-0----0-0-0-|-10-7-0-5-8-5-|
|-0----0-0-0-|-0----0-0-0-|-0----0-0-0-|-10-7-0-5-8-5-|


  D5                    Eb5  C5    D5      C5 A5D5G5BbG5
  PM------------------|            PM--|
  Q.   E E E   Q.   E E  E    Q.   E E E    E E E E E E
|------------|-------------|-------------|--------------||
|------------|-------------|-------------|--------------||
|------------|-------------|-------------|--------------||
|------------|-------------|-------------|-10-7-0-5-8-5-||
|-0----0-0-0-|-0----0-0-13-|-10----0-0-0-|-10-7-0-5-8-5-||
|-0----0-0-0-|-0----0-0-13-|-10----0-0-0-|-10-7-0-5-8-5-||


   Bridge
    D5                                     C5 A5D5G5BbG5
    PM---------------------------------|
    Q.   E E E   Q.   E E E   Q.   E E E    E E E E E E   3x
||-------------|------------|------------|----------------||
||o------------|------------|------------|---------------o||
||-------------|------------|------------|----------------||
||-------------|------------|------------|-10-7-0-5-8-5---||
||o-0----0-0-0-|-0----0-0-0-|-0----0-0-0-|-10-7-0-5-8-5--o||
||--0----0-0-0-|-0----0-0-0-|-0----0-0-0-|-10-7-0-5-8-5---||


  D5           C5 A5D5G5Bb5   C5 A5D5G5Bb5   C5 A5D5G5BbG5
  PM-------|
  Q.   E E E    E E E E E E    E E E E E E    E E E E E E
|------------|--------------|--------------|--------------|
|------------|--------------|--------------|--------------|
|------------|--------------|--------------|--------------|
|------------|-10-7-0-5-8---|-10-7-0-5-8---|-10-7-0-5-8-5-|
|-0----0-0-0-|-10-7-0-5-8---|-10-7-0-5-8---|-10-7-0-5-8-5-|
|-0----0-0-0-|-10-7-0-5-8-0-|-10-7-0-5-8-0-|-10-7-0-5-8-5-|


    D5                                           Eb5
    Q  E S S E E   Q  E S S E E   Q  E S S E E   Q  Q  Q
||---------------|--------------|--------------|----------|
||o--------------|--------------|--------------|----------|
||--2------------|-2------------|-2------------|-3--3--3--|
||--0--0h1p0-----|-0--0h1p0-----|-0--0h1p0-----|-1--1--1--|
||o-0--------3p0-|-0--------3p0-|-0--------3p0-|-1--1--1--|
||--0------------|-0------------|-0------------|-1--1--1--|


                                           D.S. al Coda
  D5                                           Eb5   F5
  Q  E S S E E   Q  E S S E E   Q  E S S E E   Q  Q  Q
|--------------|--------------|--------------|-----------||
|--------------|--------------|--------------|----------o||
|-2------------|-2------------|-2------------|-3--3--5---||
|-0--0h1p0-----|-0--0h1p0-----|-0--0h1p0-----|-1--1--3---||
|-0--------3p0-|-0--------3p0-|-0--------3p0-|-1--1--3--o||
|-0------------|-0------------|-0------------|-1--1--3---||


 Outro-Chorus
  &
  D5             C5             G/B
  Q.   E +E  E   Q.   E +E  E   Q.   E +E  E
|--------------|--------------|--------------|
|-3----3-(3)-3-|--------------|--------------|
|-2----2-(2)-2-|-5----5-(5)-5-|-4----4-(4)-4-|
|-0----0-(0)-0-|-5----5-(5)-5-|-5----5-(5)-5-|
|-0----0-(0)-0-|-3----3-(3)-3-|-2----2-(2)-2-|
|-0----0-(0)-0-|--------------|--------------|


  G5     F#5  F5             A5             E5
  Q.   E Q    Q.   E +E  E   Q.   E +E  E   Q.   E +E  E
|-----------|--------------|--------------|--------------|
|-----------|--------------|--------------|--------------|
|-7----7-6--|-5----5-(5)-5-|-9----9-(9)-9-|-4----4-(4)---|
|-5----5-4--|-3----3-(3)-3-|-7----7-(7)-7-|-2----2-(2)---|
|-5----5-4--|-3----3-(3)-3-|-7----7-(7)-7-|-2----2-(2)---|
|-5----5-4--|-3----3-(3)-3-|-7----7-(7)-7-|-2----2-(2)-0-|


  G5F5D5F5        G5F5D5F5        G5F5D5F5        D5
  Gtr II
  E E E E  E  E   E E E E  E  E   E E E E  E  E   W
|---------------|---------------|---------------|-----------*|
|---------------|---------------|---------------|-----------*|
|---------------|---------------|---------------|-----------*|
|-5p3-0-3p=0----|-5p3-0-3p=0----|-5p3-0-3p=0----|-----------*|
|-------------3-|-------------3-|-------------3-|-----------*|
|---------------|---------------|---------------|-----------*|
|
| Gtr I
|     PM              PM              PM
| E E E E +E  E   E E E E +E  E   E E E E +E  E   Q.   E Q
|---------------|---------------|---------------|-----------*|
|---------------|---------------|---------------|-3---------*|
|-7-5---5-(5)-5-|-7-5---5-(5)-5-|-7-5---5-(5)-5-|-2---------*|
|-5-3-0-3-(3)-3-|-5-3-0-3-(3)-3-|-5-3-0-3-(3)-3-|-0---------*|
|-5-3-0-3-(3)-3-|-5-3-0-3-(3)-3-|-5-3-0-3-(3)-3-|-0---------*|
|-5-3-0-3-(3)-3-|-5-3-0-3-(3)-3-|-5-3-0-3-(3)-3-|-0---------*|




--------------------------------------------------------------------------------


Duration Legend
---------------
W - whole; H - half; Q - quarter; E - 8th; S - 16th; T - 32nd; X - 64th; a - acciaccatura
+ - note tied to previous; . - note dotted; .. - note double dotted
Uncapitalized letters represent notes that are staccato (1/2 duration)
Irregular groupings are notated above the duration line
Duration letters will always appear directly above the note/fret number it represents the
duration for.  Duration letters with no fret number below them represent rests.  Multi-
bar rests are notated in the form Wxn, where n is the number of bars to rest for.  Low
melody durations appear below the staff

Tablature Legend
----------------
 h   - hammer-on
 p   - pull-off
 b   - bend
 pb  - pre-bend
 r   - bend release (if no number after the r, then release immediately)
 /\  - slide into or out of (from/to "nowhere")
 s   - legato slide
 S   - shift slide
 - natural harmonic
[n]  - artificial harmonic
n(n) - tapped harmonic
 ~   - vibrato
 tr  - trill
 T   - tap
 TP  - trem. picking
 PM  - palm muting
\n/  - tremolo bar dip; n = amount to dip
 \n  - tremolo bar down
 n/  - tremolo bar up
/n\  - tremolo bar inverted dip
 =   - hold bend; also acts as connecting device for hammers/pulls
 <> - volume swell (louder/softer)
 x   - on rhythm slash represents muted slash
 o   - on rhythm slash represents single note slash

Misc Legend
-----------
 |  - bar
||  - double bar
||o - repeat start
o|| - repeat end
*|  - double bar (ending)
 :  - bar (freetime)
 $  - Segno
 &  - Coda
Tempo markers -  = BPM(8/16=s8/s16), where s8 = swing 8ths, s16 = swing 16ths


comments
We did not receive enough feedback on this tab! Please rate:
print report bad tab
1 2 3 4 5
I want to post or [tab]
guest
You may want to rate the tab now too:
select rating
Please do not post tabs as comments. Select "correction" instead!