Oops, an error
Loading. Please wait.

Full Circle bass

version 1
version 1

Whole song

Interactive

by Creed
288 views 1 this week
no commentswrite comment
1 2 3 4 5
2 more votes to show rating
add to favorites
×
Save as Personal and add changes to this tab that will be seen only by you. Learn more ›
×
You can save this tab as Personal to edit and correct it or add notes. All changes will be seen only by you. Learn more »
launch autoscroll
font size
0
reset
guitar tuner
edit
Autoscroll
slow
fast
+/-
esc
set tempo
stop
Creed - 'Full Circle'
From the album 'Full Circle'
5 String Bass Standard Tuning
tabbed by jjhand



Intro - short bouncy notes
G|-------------------------|------------------------|------------------------|
D|-------------------------|------------------------|------------------------|
A|-------------------------|-2--2-------------------|-2--2-------------------|
E|-------------------5--5--|-------------------5--5-|-------------------5--5-|
B|-0--0--3--3--0--0--------|-------3--3--0--0-------|-------3--3--0--0-------|

|------------------------|
|------------------------|
|-2--2-------------------|
|------------------------|
|-------3--3--0--3--3~~--|



Verse 1
|-------------------------|------------------------|------------------------|
|-------------------------|------------------------|------------------------|
|-------------------------|-2--2-------------------|-2--2-------------------|
|-------------------5--5--|------------------5p2-5-|------------------5p2-5-|
|-0-----3--3--0-----------|-------3--3--0--0-------|-------3--3--0--0-------|

|------------------------|
|------------------------|
|-2--2-----------5--5\---|  play Intro 1x
|------------------------|
|-------3--3--0----------|




Prechorus

G|------------------------|------------------------|
D|------------------------|------------------------|
A|-0--0--------0--0--0--0-|------------------------|
E|-------0--0-------------|-3--3--------3--3-------|
B|------------------------|-------3--3--------3----|
            "A day of reflection hits"

|------------------------|------------------------|
|------------------------|------------------------|
|------------------------|-2--2-------------------|
|-------------------5--5-|------------------------|
|-0-----3--3--0----------|-------3--3--0--0--3--3-|
"You're a shell, skin and bones counting costs, is it worth your soul?"

|------------------------|------------------------|
|------------------------|------------------------|
|-0--0--------0--0--0--0-|------------------------|
|-------0--0-------------|-3--3--------3--3-------|
|------------------------|-------3--3--------3----|
            "A day of reflection hits"




Chorus - play 2x, similarly on repeat

G|----------------------|------------------------|
D|----------------------|------------------------|
A|------2---------------|------------------------|
E|----------------------|------------------------|
B|-0---------0--0--0--0-|-3--3--3--3--3--3--3--3-|


|------------------------|------------------------|
|------------------------|------------------------|
|------------------------|------------------------|
|-5--5--5--5--5--5--5--5-|------------------------|
|------------------------|-5--5--5--5--5---3--2---|




Play Verse 2 similar to first verse



Play Prechorus again



Play Chorus (2:05)



2:26 - only guitar playing




Bridge (2:34) - 

|--------------------------------|-------------------------------|
|--------------------------------|-------------------------------|
|--------------------------------|-------------------------------|
|--------------------------------|-------------------5-----------|
|-8-5-0-4-7-0-8-5-0-4-7-0-875875-|-0----0-3-5-0----0---7-0-7-8-7-|

|------------------------------|-------------------------------|
|------------------------------|-------------------------------|
|------------------------------|-------------------------------|
|-------------------5----------|-------------------5-----------|
|-0----0-3-5-0----0---7-0-7~---|-0----0-3-5-0----0---7-0-7-8-7-|

|--------------------------------|-------------------------------|
|--------------------------------|-------------------------------|
|--------------------------------|-------------------------------|
|--------------------------------|-------------------5-----------|
|-8-5-0-4-7-0-8-5-0-4-7-0-875875-|-0----0-3-5-0----0---7-0-7-8-7-|

|------------------------------|-------------------------------|
|------------------------------|-------------------------------|
|------------------------------|-------------------------------|
|-------------------5----------|-------------------5-----------|
|-0----0-3-5-0----0---7-0-7~---|-0----0-3-5-0----0---7-0-7-8-7-|

|--------------------------------|
|--------------------------------|
|--------------------------------|
|--------------------------------|
|-8-5-0-4-7-0-8-5-0-4-7-0-875875-|


Final Chorus - Part without Drums
|--------------|---------------|---------------|----------------|
|--------------|---------------|---------------|----------------|
|--------------|---------------|---------------|----------------|
|--------------|---------------|-5-------------|-4--------------|
|-0------------|-3-------------|---------------|-5-------3------|

|--------------|---------------|---------------|----------------|
|--------------|---------------|---------------|----------------|
|--------------|-5-------------|---------------|----------------|
|--------------|---------------|-5-------------|-7--------------|
|-0------------|---------------|---------------|-5--------------|



Play Chorus Again similar to before



Guitar Solo - Play Chorus again 


key:

\  slide
p  pull-off
~  hold, add vibrato

            
            
Suggest correction
Creating personal tab
Creating personal tab
You can edit any tab online and save it as your Personal.

You can edit, replace or remove any tab part or add personal notes – all changes will be seen only by you.

Personal tabs can be accessed anytime from any device, even offline.
Learn more »
Give kudos to tab author, rate the tab!
1 2 3 4 5
comments
print report bad tab
guest
You may want to rate the tab now too:
select rating
Wanna post a correction for this tab? Suggest correction