Oops, an error
Loading. Please wait.

Good Fight tab

version 1
version 1

Whole song

  • Full Guitar Tab as played on the Full Circle album. Please rate or comment.

Interactive

by Creed
5,436 views 3 this week
3 commentsread comments
1 2 3 4 5
x 8
add to favorites
×
Save as Personal and add changes to this tab that will be seen only by you. Learn more ›
×
You can save this tab as Personal to edit and correct it or add notes. All changes will be seen only by you. Learn more »
launch autoscroll
font size
0
reset
how to read this tab
guitar tuner
edit
Autoscroll
slow
fast
+/-
esc
set tempo
stop
About this tab version
Full Guitar Tab as played on the Full Circle album. Please rate or comment. Was this info helpful? Yes No
Creed - "Good Fight"
From "Full Circle" Album
C# Tuning - C# F# B E G# C#, all strings tuned down 3 frets
tabbed by jjhand

The riffs and solo are very nice on this song but I find the chorus part 
could be better. Great song though, so please rate or comment. Thanks!

[Main Riff]
    C#7                       C#add2 C#
C#|----------------------------|--------------------------------|
G#|----------------------------|--------------------------------|
E |----------------------------|--------------------------------|
B |-------------0--------------|-4---2------------------2-------|
F#|--------2--------------2----|---------2--------------2-------|
C#|-0--0-0----0-----0-0-0----0-|---0-------0----0-3b-0--0---0-2-|
 
  E                           D#m7       D 
|---------------------------|-------------------0---------|
|---------------------------|---------------------0-------|
|---------------------------|-----------------------2-----|
|-------------0-------------|-4--2--2-----------------3---|
|--------2--------------2---|----0--0-------3-----------0-|
|-3--3-3----3-----3-3-3---3-|--0h2--2---0h1---------------|
 
 
 
 
Lyrics:
 
"I give my all, my everything. Anything you wanna strive to be
that's right. God knows thats right.
Or am I stuck some where between who I am and who I hope to be
Am I fighting the good fight?"
 
 
[Chorus]
 
|---------------------------|-------------------------|---------------------------|
|---------------------------|-------------------------|---------------------------|
|-2----2---2-2-2-2----2-2---|-2----2----2--2-2--2-2-0-|---------------------------|
|-0----0---0-0-0-0----0-0---|-3----3----3--3-3--3-3-0-|-7----7---7-7-7-7---7-7-7--|
|-2----2---2-2-2-2----2-2---|-3----3----3--3-3--3-3-0-|-5----5---5-5-5-5---5-5-5--|
|-3----3---3-3-3-3----3-3-0-|-1----1----1--1-1--1-1---|-5----5---5-5-5-5---5-5-5--|
 
                "Keep pressing on                       Fight the good fight"
 
 
|-----------------------|-----------------------|--------------------------|
|-----------------------|-----------------------|--------------------------|
|-----------------------|-2----2---2-2-2-2------|-2----2----2--2-2--2--0---|
|-7----7---7-7----------|-0----0---0-0-0-0---0--|-3----3----3--3-3--3--0---|
|-4----4---4-4--7---7---|-2----2---2-2-2-2---0--|-3----3----3--3-3--3--0-5-|
|---------------5---4---|-3----3---3-3-3-3---2--|-1----1----1--1-1--1----5-|
 
"Fight...  what you know is wrong.    Keep pressing on"
 
 
|---------------------------|-----------------------|
|---------------------------|-----------------------|
|---------------------------|-----------------------|
|-7----7---7-7-7-7---7-7-7--|-7---------------------|
|-5----5---5-5-5-5---5-5-5--|-4---------------------|
|-5----5---5-5-5-5---5-5-5--|-----------------------|
 
"Fight the good fight        Fight...  what you know is wrong."
 
 
 
 
Play Verse and Chorus again
 
Verse 2 Lyrics: 
"I've come so far to fall too fast, eyes forward I can't look back 
when I try. God knows I try
I shift my eyes through the sky, in the distance see the horizon light.
She waits for me, fighting the good fight"
 
Chorus is same as before
 
 
 
[Interlude] 
 
    ** pick-up notes from chorus shown in beginning
 
           play this 4 bars 2x
|-------||-----------------------------|----------------------------------|
|-------||-----------------------------|----------------------------------| PH
|-------||-----------------------------|----------------------------------| changes on
|-------||-----------------------------|----------------------2-4---------| repeat
|-2-0---||--------------/8-7~----------|-/5---------------2-3-----3-2-5PH~| 

            
            
Suggest correction
Creating personal tab
Creating personal tab
You can edit any tab online and save it as your Personal.

You can edit, replace or remove any tab part or add personal notes – all changes will be seen only by you.

Personal tabs can be accessed anytime from any device, even offline.
Learn more »
comments
print report bad tab
3 comments total.
0 reply
Asp333 41 Mar 03, 2010 06:34 PM

Good tab, I think your tuning is a half step flat though. It sounds like it might be played in C#-F#-B-E-G#-C# (low-high.)

I could be wrong... either way, great tab!

0 reply
Asp333 41 Mar 03, 2010 06:36 PM

NVM, this part has it listed differently...

Good Fight tab by Creed, www.Ultimate-Guitar.Com
Listen to Good Fight
Add to favourites
Tuning (this tab): C Tuning [ C F A# D# G C ]
Difficulty: intermediate

+1 reply
JimBonJovi 840 Aug 18, 2010 12:42 PM

4 stars? Give me a break. This should be 5 stars.

guest
You may want to rate the tab now too:
select rating
Wanna post a correction for this tab? Suggest correction