Oops, an error
Loading. Please wait.
We have an official Higher tab made by UG professional guitarists. Check out the tab »
×
by Creed
27,206 views 24 this week
14 commentsread comments
1 2 3 4 5
x 9
add to favorites
×
Save as Personal and add changes to this tab that will be seen only by you. Learn more ›
×
You can save this tab as Personal to edit and correct it or add notes. All changes will be seen only by you. Learn more »
launch autoscroll
font size
0
reset
guitar tuner
backing track
0:00
0:00
edit
Autoscroll
slow
fast
+/-
esc
set tempo
stop
Author
Unregistered
Creed:Higher
From the album Human Clay
Words and Music by Tremonti and Stapp 
Transcribe: Fernando Delgado

Drop-D tuning...Lo to Hi(DADG)
==============================

[Intro]
MM = 78

     w   |w   |w   |H|e s s   E s e s s s s e s s s s  
G|-----|----|----|----------|-------------------------|
D|4:-R-|----|----|----------|-------------------------|
A|4:---|----|----|----------|-----5-5-5-5-5-----5-7-5-|
E|-----|----|----|------7-7-|-0-0-----------0-0-------|

  
   E s s s s s e s s s s s s   E s s s s e s s s s s s s  
G|---------------------------|---------------------------|
D|-------------------R-------|---------------------------|
A|-0-0-0-4-5-4-4-4-5---7P5-5-|---------------------------|
E|---------------------------|-5-5-5P0-3-5-5-5P0-3H5-5P0-|
                          
                        [1st Verse]

   s e e s s e e s s s e    q q|s s e e s s   q E s e s s s s e  
G|-----------------------|------------------|-------------------|
D|-----------------------|*-----------------|---5-5-------R-----|
A|-----------------7-5-7-|*---5-----5-------|-------------------|
E|-5-0-0-0-5-0-0-0-------|--0-----0/--0-4/5-|-5-----5-5/7---5-5-|

[Pre-Chorus]

   q q|s s e e s s   q E s e s s e e 3  s s s s s s s s s s s s s s s s  
G|-----------------|------------------|---------------------------------|
D|-----------------|---5-5-5---------*|---------------------------------|
A|---5-----5-------|-----------------*|---------------------------------|
E|-0-----0/--0-4/5-|-5-------5H7-7-5--|-4-4-4-4-4-4-4-4-4-4-4-4-4-4-4-4-|

  
   s s s s s s s s s s s s s s s s   s s s s s s s s s s s s s s s s  
G|---------------------------------|---------------------------------|
D|---------------------------------|---------------------------------|
A|---------------------------------|---------------------------------|
E|-5-5-5-5-5-5-5-5-5-5/7-7-7-5-5-5-|-4-4-4-4-4-4-4-4-4-4-4-4-4-4-4-4-|

[Chorus]
                                      
   s s s s e  e  s  e  s  s  s  s  s   E s s s E s s s e s  
G|-----------------------------------|---------------------|
D|-----------------------------------|---------------R-----|
A|-----------------------------------|---5H7-5-4-4H5---7-7-|
E|-5-5-5-5-5/16-17-17-17-17-17-17-17-|-0-------------------|


   E E s e s s s s s e   E s s s     q s s s s e   E E s e s s s e      s s
G|---------------------|-------------------------|--------------------------|
D|---------4-----4-5-7-|-------------------------|---------4----------------|
A|-----------5-5-------|-5-5-----(5)\4-4H5-5-7-7-|-----------5-5-4>-(5)-5-7-|
E|-5-4-0-0-------------|-----5/7-----------------|-5-4-0-0------------------|


   E s s s E s s s e s   E E s e s s s s s e   E s s s     q s s s s e  
G|---------------------|---------------------|-------------------------|
D|---------------R-----|---------4-----4-5-7-|-------------------------|
A|---5H7-5-4-4H5---7-7-|-----------5-5-------|-5-5-----(5)\4-4H5-5-7-7-|
E|-0-------------------|-5-4-0-0-------------|-----5/7-----------------|

           [2nd Verse]

   E E e|h    q q|s s e e s s   q E s e s s s s e   q q|s s e e s s  
G|---------|------------------|-------------------|-----------------|
D|---------|*-----------------|---5-5-------R-----|-----------------|
A|---------|*---5-----5-------|-------------------|---5-----5-------|
E|-5-4-0---|--0-----0/--0-4/5-|-5-----5-5/7---5-5-|-0-----0/--0-4/5-|

[Pre-Chorus]

   q E s e s s e e 3  s s s s s s s s s s s s s s s s  
G|------------------|---------------------------------|
D|---5-5-5---------*|---------------------------------|
A|-----------------*|---------------------------------|
E|-5-------5H7-7-5--|-4-4-4-4-4-4-4-4-4-4-4-4-4-4-4-4-|


   s s s s s s s s s s s s s s s s   s s s s s s s s s s s s s s s s  
G|---------------------------------|---------------------------------|
D|---------------------------------|---------------------------------|
A|---------------------------------|---------------------------------|
E|-5-5-5-5-5-5-5-5-5-5/7-7-7-5-5-5-|-4-4-4-4-4-4-4-4-4-4-4-4-4-4-4-4-|

[Chorus]

   s s s s e  e  s  e  s  s  s  s  s   E s s s E s s s e s  
G|-----------------------------------|---------------------|
D|-----------------------------------|---------------R-----|
A|-----------------------------------|---5H7-5-4-4H5---7-7-|
E|-5-5-5-5-5/16-17-17-17-17-17-17-17-|-0-------------------|


   E E s e s s s s s e   E s s s     q s s s s e   E E s e s s s e      s s
G|---------------------|-------------------------|--------------------------|
D|---------4-----4-5-7-|-------------------------|---------4----------------|
A|-----------5-5-------|-5-5-----(5)\4-4H5-5-7-7-|-----------5-5-4>-(5)-5-7-|
E|-5-4-0-4-------------|-----5/7-----------------|-5-4-0-0------------------|


   E s s s E s s s e s   E E s e s s s s s e   E s s s     q s s s s e  
G|---------------------|---------------------|-------------------------|
D|---------------R-----|---------4-----4-5-7-|-------------------------|
A|---5H7-5-4-4H5---7-7-|-----------5-5-------|-5-5-----(5)\4-4H5-5-7-7-|
E|-0-------------------|-5-4-0-4-------------|-----5/7-----------------|

                        [1st Bridge]

   E E s e s s s s s s s    s s s s s s s s s s s s s s s s  
G|-----------------------|----------------------------------|
D|---------4-------------|*---------------------------------|
A|-----------5-5-4H5-5-7-|*---------------------------------|
E|-5-4-0-0---------------|--4-4-4-4-4-4-4-4-4-4-4-4-4-4-4-4-|


   s s s s s s s s s s s s s s s s   s s s s s s s s s s s s s s s s  
G|---------------------------------|---------------------------------|
D|---------------------------------|---------------------------------|
A|---------------------------------|---------------------------------|
E|-5-5-5-5-5-5-5-5-5-5-5-5-5-5-5-5-|-4-4-4-4-4-4-4-4-4-4-4-4-4-4-4-4-|

                                            [ Guitar Solo]

   s s s s s s s  s  s  s  s  s  s  s  s  s   E s e s s s s e s s s s  
G|------------------------------------------|-------------------------|
D|------------------------------------------|-------------------------|
A|------------------------------------------|-----5-5-5-5-5---5-5-7-5-|
E|-4/5-5-5-5-5-5/16-17-17-17-17-17-17-17-17-|-0-0-----------0---------|


   e s s s s s E s s s e s   e s s s s s e s s s s s s s  
G|-------------------------|-----------------------------|
D|-------------------R-----|-----------------------------|
A|-----------5-4-4-5---7\5-|-----------------------------|
E|-7-7-7-7-7---------------|-5-5-5-5-0-3-5-5-5-0-3-5-5-7-|

                            [2nd Bridge]

   s e e s s e e s s s s s   E s e s E e s s s s   E s s s s e s s s s s s
 s  
G|-------------------------|---------------------|---------------------------|
D|-------------------------|---------------------|---------------------------|
A|-------------------------|---------------5-7-5-|---------5-4-4-4H5-5H7-7-5-|
E|-5-0-0-0-5-0-0-0-5-0-0-0-|-0-0-0-0-0-0-0-------|-7-7-7-7-------------------|


   E s s s s s s s s s s s s s   s e e s s e e s s s s s   E s e s E e s s
 s s  
G|-----------------------------|-------------------------|---------------------|
D|---5-------------------------|-----------------5-4---4-|---------------------|
A|-----------------------------|---------------------7---|---------------5-7-5-|
E|-5---5-0-5-5-5-5-0H3/5-5-0-5-|-5-0-0-0-5-0-0-0---------|-0-0-0-0-0-0-0-------|


   E s s s s e s s s s s s s   E s s s s s s s s s s s s s  
G|---------------------------|-----------------------------|
D|---------------------------|---5-------------------------|
A|---------5-4-4-4H5-5H7-7-5-|-----------------------------|
E|-7-7-7-7-------------------|-5---5-0-5-5-5-5-0H3/5-5-0-5-|

                         [Interlude]            [3rd Bridge]

   s s s e s s s s e s q   w   w   |w   |H|E s   e q e e e E s   e e e e e
 e q  
G|---------------------7-|---|---|----|--------|---------------|---------------|
D|-----5-4-4-----5-4-4---|---|-R-|----|--------|---------------|---------------|
A|-----------------------|---|---|----|------4-|-5-5-5-5-5-5---|---------------|
E|-5-0-------0-0---------|-0-|---|----|--------|-------------5/|-7-7-7-7-7-7-7-|

[Chorus]

   e e e e h   s e e s s e e s s s s s   E s s s E s s s e s  
G|-----------|-------------------------|---------------------|
D|-----------|-------------------------|---------------R-----|
A|-----------|-------------------------|---5H7-5-4-4H5---7-7-|
E|-5-5-5-5-5-|-5-0-0-0-5-0-0-0-5P0-0-0-|-0-------------------|


   E E s e s s s s s e   E s s s     q s s s s e   E E s e s s s e      s s
G|---------------------|-------------------------|--------------------------|
D|---------4-----4-5-7-|-------------------------|---------4----------------|
A|-----------5-5-------|-5-5-----(5)\4-4H5-5-7-7-|-----------5-5-4>-(5)-5-7-|
E|-5-4-0-0-------------|-----5/7-----------------|-5-4-0-0------------------|


   E s s s E s s s e s   E E s e s s s s s e   E s s s     q s s s s e  
G|---------------------|---------------------|-------------------------|
D|---------------R-----|---------4-----4-5-7-|-------------------------|
A|---5H7-5-4-4H5---7-7-|-----------5-5-------|-5-5-----(5)\4-4H5-5-7-7-|
E|-0-------------------|-5-4-0-0-------------|-----5/7-----------------|

                             Outro Chorus

   E E s e s s s e      s s   E s s s q s s s e s   E E s e s s s s s e  
G|--------------------------|---------------------|---------------------|
D|---------4----------------|---------------R-----|---------4-----4-5-7-|
A|-----------5-5------------|---5H7-5-4-4H5---7-7-|-----------5-5-------|
E|-5-4-0-0-------4>-(5)-4P0-|-0-------------------|-5-4-0-0-------------|


   E s s s     q s s s s e   E E s e s s s e      s s  
G|-------------------------|--------------------------|
D|-------------------------|---------4----------------|
A|-5-5-----(5)\4-4H5-5-7-7-|-----------5-5-4>-(5)-5-7-|
E|-----5/7-----------------|-5-4-0-0------------------|


   E s s s s e s s s s s s s   E E s e s s s s s e   E s s s     q s s s s
 e  
G|---------------------------|---------------------|-------------------------|
D|---7-7-------7-------------|---------4-----4-5-7-|-------------------------|
A|-5-----5-4-4---4-4-4H5-5-7-|-----------5-5-------|-5-5-----(5)\4-4H5-5-7-7-|
E|---------------------------|-5-4-0-0-------------|-----5/7-----------------|


   E E e|h   |w  
G|---------|----|
D|---------|----|
A|---------|----|
E|-5-4-0---|----|

Lyrics:
When dreaming I'm guided through another world
Time and time again
At sunrise I fight to stay asleep
'Cause I don't want to leave the comfort of this place
'Cause there's a hunger, a longing to escape
>From the life I live when I'm awake
So let's go there
Let's make our escape
Come on, let's go there
Let's ask can we stay
Can you take me higher?
To the place where blind men see
Can you take me higher?
To the place with golden streets
Although I would like our world to change
It helps me to appreciate
Those nights and those dreams
But, my friend, I'd sacrifice all those nights
If I could make the earth and my dreams the same
The only difference is
To let love replace all our hate
So let's go there
Let's make our escape
Come on, let's go there
Let's ask can we stay
Up high I feel like I'm alive for the very first time
Up high I'm strong enough to take these dreams
And make them mine

G|-----------|-------------------------|---------------------|
D|-----------|-------------------------|---------------------|
A|-----------|-------------------------|---5H7-5-4-4H5---7-7-|
E|-5-5-5-5-5-|-5-0-0-0-5-0-0-0-5P0-0-0-|-0-------------------|


   E E s e s s s s s e   E s s s     q s s s s e   E E s e s s s e      s s
G|---------------------|-------------------------|--------------------------|
D|---------4-----4-5-7-|-------------------------|---------4----------------|
A|-----------5-5-------|-5-5-----(5)\4-4H5-5-7-7-|-----------5-5-4>-(5)-5-7-|
E|-5-4-0-0-------------|-----5/7-----------------|-5-4-0-0------------------|


   E s s s E s s s e s   E E s e s s s s s e   E s s s     q s s s s e  
G|---------------------|---------------------|-------------------------|
D|---------------R-----|---------4-----4-5-7-|-------------------------|
A|---5H7-5-4-4H5---7-7-|-----------5-5-------|-5-5-----(5)\4-4H5-5-7-7-|
E|-0-------------------|-5-4-0-0-------------|-----5/7-----------------|

                             Outro Chorus

   E E s e s s s e      s s   E s s s q s s s e s   E E s e s s s s s e  
G|--------------------------|---------------------|---------------------|
D|---------4----------------|---------------R-----|---------4-----4-5-7-|
A|-----------5-5------------|---5H7-5-4-4H5---7-7-|-----------5-5-------|
E|-5-4-0-0-------4>-(5)-4P0-|-0-------------------|-5-4-0-0-------------|


   E s s s     q s s s s e   E E s e s s s e      s s  
G|-------------------------|--------------------------|
D|-------------------------|---------4----------------|
A|-5-5-----(5)\4-4H5-5-7-7-|-----------5-5-4>-(5)-5-7-|
E|-----5/7-----------------|-5-4-0-0------------------|


   E s s s s e s s s s s s s   E E s e s s s s s e   E s s s     q s s s s
 e  
G|---------------------------|---------------------|-------------------------|
D|---7-7-------7-------------|---------4-----4-5-7-|-------------------------|
A|-5-----5-4-4---4-4-4H5-5-7-|-----------5-5-------|-5-5-----(5)\4-4H5-5-7-7-|
E|---------------------------|-5-4-0-0-------------|-----5/7-----------------|


   E E e|h   |w  
G|---------|----|
D|---------|----|
A|---------|----|
E|-5-4-0---|----|

Lyrics:
When dreaming I'm guided through another world
Time and time again
At sunrise I fight to stay asleep
'Cause I don't want to leave the comfort of this place
'Cause there's a hunger, a longing to escape
>From the life I live when I'm awake
So let's go there
Let's make our escape
Come on, let's go there
Let's ask can we stay
Can you take me higher?
To the place where blind men see
Can you take me higher?
To the place with golden streets
Although I would like our world to change
It helps me to appreciate
Those nights and those dreams
But, my friend, I'd sacrifice all those nights
If I could make the earth and my dreams the same
The only difference is
To let love replace all our hate
So let's go there
Let's make our escape
Come on, let's go there
Let's ask can we stay
Up high I feel like I'm alive for the very first time
Up high I'm strong enough to take these dreams
And make them mine
    
                
************************************

 w = Whole  h = Half  q = Quarter
e = 8th    s = 16th  t = 32nd  x = 64th
 Capital durations are dotted notes
(equal to 1.5 times the durationvalue)

G|----|                   |----|
D|*--*|  = MEASURE        |4:--|  = TIME
A|*--*|    REPEATS        |4:--|    SIGNATURES
E|----|   (#=Num Repeats) |----|

| = TIE         ^  = TRIPLET           > = BEND
H = HAMMER ON   \  = SLIDE TO FRET     R = Rest
P = PULL OFF    \X = SLIDE TO NOWHERE  ~ = Trill 

************************************
Suggest correction
Creating personal tab
Creating personal tab
You can edit any tab online and save it as your Personal.

You can edit, replace or remove any tab part or add personal notes – all changes will be seen only by you.

Personal tabs can be accessed anytime from any device, even offline.
Learn more »
comments
print report bad tab
14 comments total. Showing first comments.
0 reply
tza 3,422 Mar 22, 2002 07:00 PM

cool shiza......keep it up.

0 reply
5225 0 Mar 22, 2002 07:00 PM

this sucks

0 reply
kurt_cobain_fan 10 Mar 22, 2002 07:00 PM

peoooo that's a grate peo dodido

guest
Wanna post a correction for this tab? Suggest correction