Oops, an error
Loading. Please wait.

Inside Us All tab

version 3
version 3

Whole song

Interactive

by Creed
8,910 views 1 this week
2 commentsread comments
1 2 3 4 5
x 9
add to favorites
×
Save as Personal and add changes to this tab that will be seen only by you. Learn more ›
×
You can save this tab as Personal to edit and correct it or add notes. All changes will be seen only by you. Learn more »
launch autoscroll
font size
0
reset
how to read this tab
guitar tuner
edit
Autoscroll
slow
fast
+/-
esc
set tempo
stop
Gtr I (D A D G B E) - 'Clean'
Gtr II (D A D G B E) - 'Distortion'
Gtr III (D A D G B E) - 'Distortion'
Gtr IV (D A D G B E) - 'Distortion'


   Intro
    Slowly Q=70
   4/4
    Gtr I
    E S S S S S S S S S S S S S S   E S S S S S S S S S S S S S S
||------------------------0-------|-----------------------0-------|
||o-------------------------0-----|-------------------------0-----|
||----------------0-----------0---|---------------0-----------0---|
||----4-----5-------5-----------5-|---7-----9-------9-----------9-|
||o-----2-----2-------2-----------|-----5-----5-------5-----------|
||--2-----2-----2-------2---------|-5-----5-----5-------5---------|


  E S S S S S S S S S S S S S S
|-------------------------------|
|-------------------------------|
|-------------------------------|
|---4-----5-----7-----5-----4h5p|
|-----0-----0-----0-----0-------|
|-0-----0-----0-----0-----0-----|


  E S S S S  S   S    S S S  S  +S  S T  T S
|----------------------------------------------||
|---------------------------------------------o||
|--------------------12-----11-(11)---9-11-9\--||
|-4-4-----5-(5)-(5)/----0-----------0----------||
|-----0------0--------------------------------o||
|-0-----0--------0--------0--------------------||


   Verse
    Gtr I
    E S S S S S S S S S S S S S S   E S S S S S S S S S S S S S S
||------------------------0-------|-----------------------0-------|
||o-------------------------0-----|-------------------------0-----|
||----------------0-----------0---|---------------0-----------0---|
||----4-----5-------5-----------5-|---7-----9-------9-----------9-|
||o-----2-----2-------2-----------|-----5-----5-------5-----------|
||--2-----2-----2-------2---------|-5-----5-----5-------5---------|


  E S S S S S S S S S S S S S S   E S S S S  S   S    S S S  S  +S  S T  T S
|-------------------------------|---------------------------------------------|
|-------------------------------|---------------------------------------------|
|-------------------------------|--------------------12-----11-(11)---9-11-9\-|
|---4-----5-----7-----5-----4h5p|=4-4-----5-(5)-(5)/----0-----------0---------|
|-----0-----0-----0-----0-------|-----0------0--------------------------------|
|-0-----0-----0-----0-----0-----|-0-----0--------0--------0-------------------|


  E S S S S S S S S S S S S S S   E S S S S S S S S S S S S S S
|-----------------------0-------|-----------------------0-------|
|-------------------------0-----|-------------------------0-----|
|---------------0-----------0---|---------------0-----------0---|
|---4-----5-------5-----------5-|---7-----9-------9-----------9-|
|-----2-----2-------2-----------|-----5-----5-------5-----------|
|-2-----2-----2-------2---------|-5-----5-----5-------5---------|


  E S S S S S S S S S S S S S S
|--------------------------------|
|--------------------------------|
|--------------------------------|
|---4-----5-----7-----5-----4h5p=|
|-----0-----0-----0-----0--------|
|-0-----0-----0-----0-----0------|


                                          Chorus
                                        $
                                           Gtr II
                                                             PM|
  E S S S S  S   S    S S S  S  +S  S E    Q  E. S S S E S S S S
|---------------------------------------||-----------------------|
|---------------------------------------||-----------------------|
|--------------------12-----11-(11)---9-||-5--5--5-5-5-5-5-5-----|
|-4-4-----5-(5)-(5)/----0-----------0---||-5--5--5-5-5-5-5-5-----|
|-----0------0--------------------------||-3--3--3-3-3-3-3-3-0-0-|
|-0-----0--------0--------0-------------||-------------------0-0-|


                      PM|                            PM|
  Q  E. S +S  S E S S S S   E. S E S S +S  S S S S S S S
|-------------------------|------------------------------|
|-------------------------|------------------------------|
|-7--7--7-(7)-7-7-7-7-----|-7--7---7-------7-----7-------|
|-7--7--7-(7)-7-7-7-7-----|-4----4---5-(5)-------5-4-----|
|-5--5--5-(5)-5-5-5-5-0-0-|-0----0-----------0-0-----0---|
|-5--5--5-(5)-5-5-5-5-0-0-|-0----0-----------0-0-----0-0-|


       PM--------------|             PM              PM|
  E. S S S E +S  S S S S E.   Q  S S S S +S  S E S S S S
|---------------------------|----------3-(3)-------------|
|---------------------------|----------------3-----------|
|-7--7----------------------|-5--5-5-----------5---------|
|-4--0-----0-(0)------------|-5--5-5-------------5-5-----|
|-0----0-0-0-(0)-0-0-0-0-2--|-3--3-3-3-----------3-3-0-0-|
|-0----0-0-0-(0)-0-0-0-0-2--|------------------------0-0-|


                      PM|                            PM|
  Q  E. S +S  S E S S S S   E. S E S S +S  S S S S S S S
|-------------------------|------------------------------|
|-------------------------|------------------------------|
|-7--7--7-(7)-7-7-7-7-----|-7--7---7-------7-----7-------|
|-7--7--7-(7)-7-7-7-7-----|-4----4---5-(5)-------5-4-----|
|-5--5--5-(5)-5-5-5-5-0-0-|-0----0-----------0-0-----0---|
|-5--5--5-(5)-5-5-5-5-0-0-|-0----0-----------0-0-----0-0-|


       PM--------------|             PM              PM|
  E. S S S E +S  S S S S E.   Q  S S S S +S  S E S S S S
|---------------------------|----------3-(3)-------------|
|---------------------------|----------------3-----------|
|-7--7----------------------|-5--5-5-----------5---------|
|-4--0-----0-(0)------------|-5--5-5-------------5-5-----|
|-0----0-0-0-(0)-0-0-0-0-2--|-3--3-3-3-----------3-3-0-0-|
|-0----0-0-0-(0)-0-0-0-0-2--|------------------------0-0-|


                                                  To Coda
                      PM|                            PM|
  Q  E. S +S  S E S S S S   E. S E S S +S  S S S S S S S
|-------------------------|------------------------------|
|-------------------------|------------------------------|
|-7--7--7-(7)-7-7-7-7-----|-7--7---7-------7-----7-------|
|-7--7--7-(7)-7-7-7-7-----|-4----4---5-(5)-------5-4-----|
|-5--5--5-(5)-5-5-5-5-0-0-|-0----0-----------0-0-----0---|
|-5--5--5-(5)-5-5-5-5-0-0-|-0----0-----------0-0-----0-0-|


  1.
  E. S S S S S +S  S S S Q
|----------------------------||
|----------------------------||
|-7--7-7-7-7-7-(7)-7-7-7-----||
|-4--4-4-4-4-4-(4)-4-5-5-----||
|-0--0-0-0-0-0-(0)-0---------||
|-0--0-0-0-0-0-(0)-0---------||


 Interlude I
  Gtr I
   E  S S S S S S S S S S S S S S    E  S S S S S S S S S S S S S S
|-------------------------0-------|-------------------------0-------|
|---------------------------0-----|---------------------------0-----|
|-----------------0-----------0---|-----------------0-----------0---|
|-----4-----5-------5-----------5-|-----7-----9-------9-----------9-|
|-------2-----2-------2-----------|-------5-----5-------5-----------|
|--2------2-----2-------2---------|--5------5-----5-------5---------|
|
| Gtr II
|  W                                 W
|---------------------------------|---------------------------------|
|---------------------------------|---------------------------------|
|---------------------------------|---------------------------------|
|---------------------------------|---------------------------------|
|-(2)-----------------------------|-(5)-----------------------------|
|-(2)-----------------------------|-(5)-----------------------------|


   E  S S S S S S S S S S S S S S
|----------------------------------|
|----------------------------------|
|----------------------------------|
|-----4-----5-----7-----5-----4h5p=|
|-------0-----0-----0-----0--------|
|--0------0-----0-----0-----0------|
|
|  W
|----------------------------------|
|----------------------------------|
|----------------------------------|
|----------------------------------|
|-(0)------------------------------|
|-(0)------------------------------|


   E  S S S S  S   S    S S S  S  +S  S T  T S
|------------------------------------------------||
|-----------------------------------------------o||
|----------------------12-----11-(11)---9-11-9\--||
|--4--4-----5-(5)-(5)/----0-----------0----------||
|-------0------0--------------------------------o||
|--0------0--------0--------0--------------------||
|
| +W
|------------------------------------------------||
|-----------------------------------------------o||
|------------------------------------------------||
|------------------------------------------------||
|-(0)-------------------------------------------o||
|-(0)--------------------------------------------||


  2.
  W
|---------------------------------||
|---------------------------------||
|---------------------------------||
|---------------------------------||
|---------------------------------||
|---------------------------------||
|
| E. S S S S S +S  S S S S S S S
|---------------------------------||
|---------------------------------||
|-7--7-7-7-7-7-(7)-7-7-7-7-7------||
|-4--4-4-4-4-4-(4)-5-5-5-5-5------||
|-0--0-0-0-0-0-(0)-0-0-0-0-0-0-0--||
|-0--0-0-0-0-0-(0)-0-0-0-0-0-0-0--||


 Interlude II
  Gtr III
   S  S  S  S  S  S  S  S  S  S  S  S  S  S  S  S
|-------10-------10-------10-------10-------10----|
|-------------------------------------------------|
|-11h12----11h12----11h12----11h12----11h12----11h|
|-------------------------------------------------|
|-------------------------------------------------|
|-------------------------------------------------|
|
| Gtr II
|  S  S  S  S  S  S  S  S  S  S  S  S  S  S  S  S
|-------------------------------------------------|
|--------3--------3--------3--------3--------3----|
|-------------------------------------------------|
|--4h=5-----4h=5-----4h=5-----4h=5-----4h=5-----4h|
|-------------------------------------------------|
|-------------------------------------------------|


                                   PM|
   S  S  S  S  S  S  S  S  S  S  S S S E.
|----10-------10-------10------------------|
|------------------------------------------|
|-12----11h12----11h12----11h12-12---------|
|--------------------------------------3---|
|----------------------------------0-0-3---|
|----------------------------------0-0-3---|
|
|                                  PM|
|  S  S  S  S  S  S  S  S  S  S  S S S E.
|------------------------------------------|
|-----3--------3--------3------------------|
|------------------------------------------|
|--5-----4h=5-----4h=5-----4h=5--5-----3---|
|----------------------------------0-0-3---|
|----------------------------------0-0-3---|


  E. S  S      +E.  S      +S  S  S  +S   E.
|--------------------------------------------|
|------13-----(13)-13-----(13)---------------|
|----0-12b13==(12)r12pb13r(12)-0-12-(12)-10--|
|--------------------------------------------|
|-0------------------------------------------|
|-0------------------------------------------|
|
|                                     PM
| Q     H                             S   E.
|--------------------------------------------|
|-3-----3------------------------------------|
|-2-----2------------------------------------|
|-0-----0------------------------------------|
|-0-----0-----------------------------0---3--|
|-0-----0-----------------------------0---3--|


                               ~~
  E E S  S S S  S  S  S  S  S  E S
|----------------------------------||
|--------------------------------0-||
|--------------10----10----10------||
|--------------10-12----12----12---||
|-0-0-0--0-0-0---------------------||
|-0-0-0--0-0-0---------------------||
|
| Q   H.
|----------------------------------||
|-3---3----------------------------||
|-2---2----------------------------||
|-0---0----------------------------||
|-0---0----------------------------||
|-0---0----------------------------||


 Bridge
                        PM|
  Q  E. S +S  S S S S S S S   Q  E. S S S S S S E.
|---------------------------|----------------------|
|---------------------------|----------------------|
|-5--5--5-(5)-5-5-5-5-5-----|----------------------|
|-5--5--5-(5)-5-5-5-5-5-----|-7--7--7-7-7-7-7------|
|-3--3--3-(3)-3-3-3-3-3-0-0-|-5--5--5-5-5-5-5-0-3--|
|-----------------------0-0-|-5--5--5-5-5-5-5-0-3--|


  D5                F5   D5
  Gtr II
  Q  E. S +E  S S S E.   E. S E. S  E           S  S  E  E
  |  |  |  |  | | | |    |  | |  |  |           |  |  |  |
  /  /  /  /  / / / /    /  / /  /  /           /  /  /  /

  Gtr III
              PM--|
  Q  E. S +E  S S S E.   E. S E. S  S      +S   S  S  E  E
|----------------------|-----------------------------------|
|-3--3--3-(3)----------|-3--3-3----13----------------------|
|-2--2--2-(2)----------|-2--2-2----12pb14r(12)-10----10----|
|-0--0--0-(0)----------|-0--0-0-------------------12----12-|
|-0--0--0-(0)-0-0-0-3--|-0--0-0--0-------------------------|
|-0--0--0-(0)-0-0-0-3--|-0--0-0--0-------------------------|


  Gtr II
                     PM                       PM|
   Q           S  S  S  S +S   S  E     S  S  S  S
|-----------------------3-(3)----------------------|
|------------------------------3-------------------|
|--5-----------5--5---------------5----------------|
|--5-----------5--5---------------------5--5-------|
|--3-----------3--3--3------------------3--3--0--0-|
|---------------------------------------------0--0-|
|
| Gtr III
|  S  S  S  S  S  S  S  S  S   S  S  S  S  S  S  S
|-------10-------10-------10--------10-------10----|
|--------------------------------------------------|
|-11h12----11h12----11h12-----11h12----11h12----11h|
|--------------------------------------------------|
|--------------------------------------------------|
|--------------------------------------------------|
|
| Gtr IV
|  S  S  S  S  S  S  S  S  S   S  S  S  S  S  S  S
|--------------------------------------------------|
|--------3--------3--------3---------3--------3----|
|--------------------------------------------------|
|--4h=5-----4h=5-----4h=5------4h=5-----4h=5-----4h|
|--------------------------------------------------|
|--------------------------------------------------|


                                      PM|
   Q           E.        S +S  S  S S S E.
|-------------------------------------------|
|-------------------------------------------|
|--7-----------7---------7-(7)-7------------|
|--7-----------7---------7-(7)-7------------|
|--5-----------5---------5-(5)-5--0-0-0-3---|
|--5-----------5---------5-(5)-5--0-0-0-3---|
|
|                                   PM|
|  S  S  S  S  S   S  S  S  S  S  S S S E.
|----10-------10--------10------------------|
|-------------------------------------------|
|-12----11h12-----11h12----11h12-12---------|
|---------------------------------------3---|
|-----------------------------------0-0-3---|
|-----------------------------------0-0-3---|
|
|                                   PM|
|  S  S  S  S  S   S  S  S  S  S  S S S E.
|-------------------------------------------|
|-----3--------3---------3------------------|
|-------------------------------------------|
|--5-----4h=5------4h=5-----4h=5--5-----3---|
|-----------------------------------0-0-3---|
|-----------------------------------0-0-3---|


  E. S  S     +E.  S      +S  S  S  +S   E.
|-------------------------------------------|
|------13----(13)-13-----(13)---------------|
|----0-12b13-(12)-12pb13r(12)-0-12-(12)-10--|
|-------------------------------------------|
|-0-----------------------------------------|
|-0-----------------------------------------|
|
| Gtrs III, IV
|                                    PM
| Q     H                            S   E.
|-------------------------------------------|
|-3-----3-----------------------------------|
|-2-----2-----------------------------------|
|-0-----0-----------------------------------|
|-0-----0----------------------------0---3--|
|-0-----0----------------------------0---3--|


                       D.S. al Coda
                               ~~
  E E S  S S S  S  S  S  S  S  E S
|-----------------------------------||
|--------------------------------0--||
|--------------10----10----10-------||
|--------------10-12----12----12----||
|-0-0-0--0-0-0----------------------||
|-0-0-0--0-0-0----------------------||
|
| Q   H.
|-----------------------------------||
|-3---3-----------------------------||
|-2---2-----------------------------||
|-0---0-----------------------------||
|-0---0-----------------------------||
|-0---0-----------------------------||


  &
  Gtr III
                                                                                  PM|
  H.                   +E     S  S    Q           E.        S +S   S  E     S  S  S  S
|----------------------------10-10-|---------------------------------------------------|
|----------------------------------|---------------------------------------------------|
|----------------------------11-11-|--5-----------5---------5-(5)--5--5-----5--5-------|
|----------------------------------|--5-----------5---------5-(5)--5--5-----5--5-------|
|-0--------------------(0)---------|--3-----------3---------3-(3)--3--3-----3--3--0--0-|
|-0--------------------(0)---------|----------------------------------------------0--0-|
|
|    Gtr II
|      PM|
| E. S S S E +S  S S S  S  S  S  S    S  S  S  S  S   S  S  S  S   S  S  S  S  S  S  S
|----------------------------------|-------10--------10-------10--------10-------10----|
|----------------------------------|---------------------------------------------------|
|----------------------------------|-11h12----11h12-----11h12-----11h12----11h12----11h|
|----------------------------------|---------------------------------------------------|
|-0--0-0-0-0-(0)-0-0-0--0--0--0--0-|---------------------------------------------------|
|-0--0-0-0-0-(0)-0-0-0--0--0--0--0-|---------------------------------------------------|


                                           PM|
   Q           E.        S +S  S  E   S S  S S
|----------------------------------------------|
|----------------------------------------------|
|--7-----------7---------7-(7)-7--7---7-7------|
|--7-----------7---------7-(7)-7--7---7-7------|
|--5-----------5---------5-(5)-5--5---5-5--0-0-|
|--5-----------5---------5-(5)-5--5---5-5--0-0-|
|
|                                   PM|
|  S  S  S  S  S   S  S  S  S  S  S S S E.
|----10-------10--------10---------------------|
|----------------------------------------------|
|-12----11h12-----11h12----11h12-12------------|
|---------------------------------------3------|
|-----------------------------------0-0-3------|
|-----------------------------------0-0-3------|


                                                                           ~~
  E. S  S     +E.  S      +S  S  S  +S   E.   E E S  S S S  S  S  S  S  S  E S
|-------------------------------------------|----------------------------------|
|------13----(13)-13-----(13)---------------|--------------------------------0-|
|----0-12b13-(12)-12pb13r(12)-0-12-(12)-10--|--------------10----10----10------|
|-------------------------------------------|--------------10-12----12----12---|
|-0-----------------------------------------|-0-0-0--0-0-0---------------------|
|-0-----------------------------------------|-0-0-0--0-0-0---------------------|
|
|                                    PM
| Q     H                            S   E.   Q   H.
|-------------------------------------------|----------------------------------|
|-3-----3-----------------------------------|-3---3----------------------------|
|-2-----2-----------------------------------|-2---2----------------------------|
|-0-----0-----------------------------------|-0---0----------------------------|
|-0-----0----------------------------0---3--|-0---0----------------------------|
|-0-----0----------------------------0---3--|-0---0----------------------------|


                                       PM                                              PM---|
   Q                       S     S     S     S    +S     S     E           S     S     S     S
|--------------------------------------------3----(3)---------------------------------------------|
|--------------------------------------------------------3----------------------------------------|
|--5-----------------------5-----5-----------------------------5----------------------------------|
|--5-----------------------5-----5-----------------------------------------5-----5----------------|
|--3-----------------------3-----3-----3-----------------------------------3-----3-----0-----0----|
|--------------------------------------------------------------------------------------0-----0----|
|
|  T  T  T  T  T  T  T  T  T  T  T  T  T  T  T  T  T  T  T  T  T  T  T  T  T  T  T  T  T  T  T  T
|-------------------------------------------------------------------------------------------------|
|-20p18----19-20p18-22p18-20p18----18-20p18----18-20p18----19-20p18-22p18-20p18----18-20p18----18-|
|-------19----------------------19----------19----------19----------------------19----------19----|
|-------------------------------------------------------------------------------------------------|
|-------------------------------------------------------------------------------------------------|
|-------------------------------------------------------------------------------------------------|


                                                                           PM---|
   Q                       E.                S    +S     S     S     S     S     E.
|-----------------------------------------------------------------------------------------|
|-----------------------------------------------------------------------------------------|
|--7-----------------------7-----------------7----(7)----7--------------------------------|
|--7-----------------------7-----------------7----(7)----7--------------------------------|
|--5-----------------------5-----------------5----(5)----5-----0-----0-----0-----3--------|
|--5-----------------------5-----------------5----(5)----5-----0-----0-----0-----3--------|
|
|  T  T  T  T  T  T  T  T  T  T  T  T  T  T  T  T  T  T  T  T  T  T  T  T  T  T  S   S  S
|-----------------------------------------------------------------------------------------|
|-20p18----19-20p18-22p18-20p18----18-20p18----18-20p18----19-20p18-22p18-20p18-----------|
|-------19----------------------19----------19----------19----------------------19--19-19-|
|-----------------------------------------------------------------------------------------|
|-----------------------------------------------------------------------------------------|
|-----------------------------------------------------------------------------------------|


                                 PM
   Q        H                    S  E.
|--------------------------------------------|
|--3--------3--------------------------------|
|--2--------2--------------------------------|
|--0--------0--------------------------------|
|--0--------0--------------------0--3--------|
|--0--------0--------------------0--3--------|
|
|  E  S  S  S  S  S  S  E  S  S  S  S   S  S
|--------------------------------------------|
|-------------18-------------------18--------|
|-19-19-17-19----19-17-19-19-17-19-----19-17-|
|--------------------------------------------|
|--------------------------------------------|
|--------------------------------------------|


   Q                       H.
|------------------------------------------------------------------------------------------------|
|--3-----------------------3---------------------------------------------------------------------|
|--2-----------------------2---------------------------------------------------------------------|
|--0-----------------------0---------------------------------------------------------------------|
|--0-----------------------0---------------------------------------------------------------------|
|--0-----------------------0---------------------------------------------------------------------|
|
|  T  T  T  T  T  T  T  T  T   T  T  T  T  T  T  T  T  T  T  T  T  T  T  T  T  T  T  T  S  T  T
|------------------------------------------------------------------------------------------------|
|-18p17----------17-18p17-----------17-18p17----------17-18p17----------17-18p17-------------17--|
|-------19-17-19----------19--17-19----------19-17-19----------19-17-19----------19-17-19-17-----|
|------------------------------------------------------------------------------------------------|
|------------------------------------------------------------------------------------------------|
|------------------------------------------------------------------------------------------------|


                                    PM                                              PM---|
   Q                       S  S     S     S    +S     S     E           S     S     S     S
|-----------------------------------------3----(3)----------------------------------------------|
|-----------------------------------------------------3-----------------------------------------|
|--5-----------------------5--5-----------------------------5-----------------------------------|
|--5-----------------------5--5-----------------------------------------5-----5-----------------|
|--3-----------------------3--3-----3-----------------------------------3-----3-----0-----0-----|
|-----------------------------------------------------------------------------------0-----0-----|
|
|  T  T  T  T  T  T  T  T  S  T  T  T  T  T  T  T  T  T  T  T  T  T  T  T  T  T  T  T  T  T  T
|-----------------------------------------------------------------------------------------------|
|----------17-18p17----------18p17----------17-18p17----------17-18p17----------17-18p17--------|
|-19-17-19----------19-17-19-------19-17-19----------19-17-19----------19-17-19----------19-17--|
|-----------------------------------------------------------------------------------------------|
|-----------------------------------------------------------------------------------------------|
|-----------------------------------------------------------------------------------------------|


                                                                         PM---|
   Q                       E.             S    +S      S     S     S     S     E.
|------------------------------------------------------------------------------------------------|
|------------------------------------------------------------------------------------------------|
|--7-----------------------7--------------7----(7)-----7-----------------------------------------|
|--7-----------------------7--------------7----(7)-----7-----------------------------------------|
|--5-----------------------5--------------5----(5)-----5-----0-----0-----0-----3-----------------|
|--5-----------------------5--------------5----(5)-----5-----0-----0-----0-----3-----------------|
|
|  T  T  T  T  T  T  T  T  T  T  T  T  S  T  T  T   T  T  T  T  T  T  T  T  T  T  T  T  T  T  T
|------------------------------------------------------------------------------------------------|
|----17-18p17----------17-18p17----------18p17-----------17-18p17----------17-18p17----------17--|
|-19----------19-17-19----------19-17-19-------19--17-19----------19-17-19----------19-17-19-----|
|------------------------------------------------------------------------------------------------|
|------------------------------------------------------------------------------------------------|
|------------------------------------------------------------------------------------------------|


  D5
  Gtr III
   E.    S S S E +S S E S S S S     E  S S S E. +Q   S E.
   |     | | | |  | | | | | | |     |  | |   |   |   | |
   /     / / / /  / / / / / / /     /  / /   /   /   / /

  Gtr II
   W                               +H.             Q
|-------------------------------|-------------------------|
|-13----------------------------|-(13)--------------------|
|-12b13=========================|=(12)--------------------|
|-------------------------------|-------------------------|
|-------------------------------|-------------------------|
|-------------------------------|-------------------------|


  Gtr II
                                            PM|          PM|
  Q     H                           +E      S S   E.   S S S E   +S   S  E    +E.    S
|-----------------------------------------------|--------------------------------------|
|-3-----3---------------------------(3)---------|-3----3-----3---(3)--3--3----(3)----0-|
|-2-----2---------------------------(2)---------|-2----2-----2---(2)--2--2----(2)----0-|
|-0-----0---------------------------(0)---------|-0----0-----0---(0)--0--0----(0)------|
|-0-----0---------------------------(0)-----0-0-|-0----0-0-0-0---(0)--0--0----(0)------|
|-0-----0---------------------------(0)-----0-0-|-0----0-0-0-0---(0)--0--0----(0)------|
|
| Gtr IV
|                                                                                  ~~
| E. S  S     +E.  S      +S  S  S  +S   E.       E  E   S S S S  S   S  S  S  S   E S
|-----------------------------------------------|--------------------------------------|
|------13----(13)-13-----(13)-------------------|------------------------------------0-|
|----0-12b13-(12)-12pb13r(12)-0-12-(12)-10------|----------------10-----10----10-------|
|-----------------------------------------------|----------------10--12----12-----12---|
|-0---------------------------------------------|-0--0---0-0-0-0-----------------------|
|-0---------------------------------------------|-0--0---0-0-0-0-----------------------|


                                               PM|
   Q           E.        S +S   S  S  S  S  S  S  S
|----------------------------------------------------|
|----------------------------------------------------|
|--5-----------5---------5-(5)--5--5--5--5--5--------|
|--5-----------5---------5-(5)--5--5--5--5--5--------|
|--3-----------3---------3-(3)--3--3--3--3--3--0--0--|
|----------------------------------------------0--0--|
|
|  S  S  S  S  S   S  S  S  S   S  S  S  S  S  S  S
|-------10--------10-------10--------10-------10-----|
|----------------------------------------------------|
|-11h12----11h12-----11h12-----11h12----11h12----11h=|
|----------------------------------------------------|
|----------------------------------------------------|
|----------------------------------------------------|


                                           PM|
   Q           E.        S +S  S  S S S S  S S
|----------------------------------------------|
|----------------------------------------------|
|----------------------------------------------|
|--7-----------7---------7-(7)-7--7-7-7-7------|
|--5-----------5---------5-(5)-5--5-5-5-5--0-0-|
|--5-----------5---------5-(5)-5--5-5-5-5--0-0-|
|
|                                   PM|
|  S  S  S  S  S   S  S  S  S  S  S S S E.
|----10-------10--------10---------------------|
|----------------------------------------------|
|-12----11h12-----11h12----11h12-12------------|
|---------------------------------------3------|
|-----------------------------------0-0-3------|
|-----------------------------------0-0-3------|


                       PM     PM|
  Q   Q      +E  S S   S   S  S S   E. S S S E +S   S  S  S   S  E.
|---------------------------------|----------------------------------|
|---------------------------------|----------------------------------|
|---------------------------------|----------------------------------|
|---------------------------------|----------------------------------|
|-0---0------(0)-0-0---0---0--0-0-|-0--0-0-0-0-(0)--0--0--0---0--2---|
|-0---0------(0)-0-0---0---0--0-0-|-0--0-0-0-0-(0)--0--0--0---0--2---|
|
| Q   S  E.  +Q       +S   E.       H           S   S  S  S  +Q
|---------------------------------|----------------------------------|
|---------------------------------|----------------------------------|
|-------------------------10------|-------------------10-------------|
|----10h12--(12)-----(12)-10------|------------10--12----12-(12)-----|
|-0-------------------------------|-0--------------------------------|
|-0-------------------------------|-0--------------------------------|


                     PM                       PM|
   Q           S  S  S  S +S   S  E     S  S  S  S
|-----------------------3-(3)----------------------|
|------------------------------3-------------------|
|--5-----------5--5---------------5----------------|
|--5-----------5--5---------------------5--5-------|
|--3-----------3--3--3------------------3--3--0--0-|
|---------------------------------------------0--0-|
|
|  S  S  S  S  S  S  S  S  S   S  S  S  S  S  S  S
|-------10-------10-------10--------10-------10----|
|--------------------------------------------------|
|-11h12----11h12----11h12-----11h12----11h12----11h|
|--------------------------------------------------|
|--------------------------------------------------|
|--------------------------------------------------|


                                      PM|
   Q           E.        S +S  S  S S S E.
|--------------------------------------------|
|--------------------------------------------|
|--7-----------7---------7-(7)-7-------------|
|--7-----------7---------7-(7)-7-------------|
|--5-----------5---------5-(5)-5--0-0-0-3----|
|--5-----------5---------5-(5)-5--0-0-0-3----|
|
|                                   PM|
|  S  S  S  S  S   S  S  S  S  S  S S S E  S
|----10-------10--------10-------------------|
|------------------------------------------0-|
|-12----11h12-----11h12----11h12-12----------|
|---------------------------------------3----|
|-----------------------------------0-0-3----|
|-----------------------------------0-0-3----|


                     PM                       PM|
   Q           S  S  S  S +S   S  E     S  S  S  S
|-----------------------3-(3)----------------------|
|------------------------------3-------------------|
|--5-----------5--5---------------5----------------|
|--5-----------5--5---------------------5--5-------|
|--3-----------3--3--3------------------3--3--0--0-|
|---------------------------------------------0--0-|
|
|  S  S  S  S  S  S  S  S  S   S  S  S  S  S  S  S
|-------10-------10-------10--------10-------10----|
|--------------------------------------------------|
|-11h12----11h12----11h12-----11h12----11h12----11h|
|--------------------------------------------------|
|--------------------------------------------------|
|--------------------------------------------------|


                                      PM|
   Q           E.        S +S  S  S S S E.
|-------------------------------------------*|
|-------------------------------------------*|
|--7-----------7---------7-(7)-7------------*|
|--7-----------7---------7-(7)-7------------*|
|--5-----------5---------5-(5)-5--0-0-0-3---*|
|--5-----------5---------5-(5)-5--0-0-0-3---*|
|
|                                   PM|
|  S  S  S  S  S   S  S  S  S  S  S S S E
|----10-------10--------10------------------*|
|-------------------------------------------*|
|-12----11h12-----11h12----11h12-12---------*|
|---------------------------------------3---*|
|-----------------------------------0-0-3---*|
|-----------------------------------0-0-3---*|




--------------------------------------------------------------------------------


Duration Legend
---------------
W - whole; H - half; Q - quarter; E - 8th; S - 16th; T - 32nd; X - 64th; a - acciaccatura
+ - note tied to previous; . - note dotted; .. - note double dotted
Uncapitalized letters represent notes that are staccato (1/2 duration)
Irregular groupings are notated above the duration line
Duration letters will always appear directly above the note/fret number it represents the
duration for.  Duration letters with no fret number below them represent rests.  Multi-
bar rests are notated in the form Wxn, where n is the number of bars to rest for.  Low
melody durations appear below the staff

Tablature Legend
----------------
 h   - hammer-on
 p   - pull-off
 b   - bend
 pb  - pre-bend
 r   - bend release (if no number after the r, then release immediately)
 /\  - slide into or out of (from/to "nowhere")
 s   - legato slide
 S   - shift slide
 - natural harmonic
[n]  - artificial harmonic
n(n) - tapped harmonic
 ~   - vibrato
 tr  - trill
 T   - tap
 TP  - trem. picking
 PM  - palm muting
\n/  - tremolo bar dip; n = amount to dip
 \n  - tremolo bar down
 n/  - tremolo bar up
/n\  - tremolo bar inverted dip
 =   - hold bend; also acts as connecting device for hammers/pulls
 <> - volume swell (louder/softer)
 x   - on rhythm slash represents muted slash
 o   - on rhythm slash represents single note slash

Misc Legend
-----------
 |  - bar
||  - double bar
||o - repeat start
o|| - repeat end
*|  - double bar (ending)
 :  - bar (freetime)
 $  - Segno
 &  - Coda
Tempo markers -  = BPM(8/16=s8/s16), where s8 = swing 8ths, s16 = swing 16ths


Suggest correction
Creating personal tab
Creating personal tab
You can edit any tab online and save it as your Personal.

You can edit, replace or remove any tab part or add personal notes – all changes will be seen only by you.

Personal tabs can be accessed anytime from any device, even offline.
Learn more »
comments
print report bad tab
2 comments total.
+1 reply
rockandmetalfan 10 Nov 02, 2010 03:36 PM

sounds fine to me. a great song! thanks for the tab

0 reply
alimikkael 10 Apr 17, 2017 02:07 PM

I am sure, he hasn't done that much work writing the song.

guest
You may want to rate the tab now too:
select rating
Wanna post a correction for this tab? Suggest correction