Oops, an error
Loading. Please wait.

Is This The End bass

version 2
version 2

Whole song

  • Went through and figured out all the bass licks in... Show more

Interactive

by Creed
28 views 3 this week
1 commentread comment
1 2 3 4 5
2 more votes to show rating
add to favorites
×
Save as Personal and add changes to this tab that will be seen only by you. Learn more ›
×
You can save this tab as Personal to edit and correct it or add notes. All changes will be seen only by you. Learn more »
launch autoscroll
font size
0
reset
guitar tuner
edit
Autoscroll
slow
fast
+/-
esc
set tempo
stop
About this tab version
Went through and figured out all the bass licks in each section. Improved on the first version. Was this info helpful? Yes No
Artist/Song:  Creed - "Is This The End"
Album:        Scream 3 Soundtrack, Human Clay Outtake
Tuning:       Drop D
tabbed by:    jjhand



[Intro] (0:12)
G|---------------|---------------|----------------|--------------|
D|---------------|---------------|----------------|--------------|
A|---------------|---------------|----------------|--------------|
D|-0-------------|-(0)-----------|-0------8\7-0-0-|-(0)----------|

G|---------------------|--------------------|----------5h7-7-7-7p5-----|
D|---------------------|--------------------|----------------------5\3-|
A|-----------5---5-5/7-|-8---8-10\8---------|--------------------------|
D|-3---3-3/5-----------|------------0-------|-(0)----------------------|


[Verse 1]
G|-------------------|--------------|---------------------|------------------|
D|-------------------|--------------|---------------------|------------------|
A|-------------------|--------------|-----------5---5-5/7-|-8---8-10\8-------|
D|-0--------8\7-0-0--|-(0)----------|-3---3-3/5-----------|------------0-----|


   6/4                          4/4
G|----------------------------|----------------|---------------------|
D|----------------------------|----------------|---------------------|
A|----------------------------|----------------|-------------8p5-----|
D|-0------------7p5--8--7--5--|-0------8\7-0-0-|-(0)-------------7\5-|

                                              6/4
G|---------------------|--------------------|--------------------------|
D|---------------------|--------------------|--------------------------|
A|-----------5---5-5/7-|-8---8-10\8---------|--------------------------|
D|-3---3-3/5-----------|------------0-------|-(0)----------------------|


G|-------------------|--------------|---------------------|-----------------------|
D|-------------------|--------------|---------------------|-----------------------|
A|-------------------|--------------|-----------5---5-5/7-|-8----8----8--8-8--10\8|
D|-0--------8\7-0-0--|-(0)----------|-3---3-3/5-----------|-----------------------|

               let ring
G|-------------------|------------------|
D|-------------------|------------------|
A|-------------3/5-5-|---5--------------|
D|-0-----------------|-0----------------|


[Chorus]
G|----------------|-------------|-------------|--------------|
D|----------------|-------------|-------------|--------------|
A|----------------|-------------|-------------|--------------|
D|-0--------------|-------------|-------------|--------------|

G|----------------|--------------|-------------|--------------|
D|----------------|--------------|-------------|--------------|
A|----------------|--------------|-------------|--------------|
D|-0--------------|-7-------7h9--|-5-----------|-0---------7\-|


[Verse 2]
G|-------------------|------------------|---------------------|------------------|
D|-------------------|----------3-------|---------------------|------------------|
A|-------------------|------------5-----|-----------5---5-5/7-|-8---8-10\8-------|
D|-0--------8\7--\0--|-(0)----------0-2-|-3---3-3/5-----------|------------0-----|


   6/4                          4/4
G|----------------------------|----------------|---------------------|
D|----------------------------|----------------|---------------------|
A|----------------------------|----------------|---------------------|
D|-0------------7p5--8--7--5--|-0------8\7-0-0-|-(0)-------------0-2-|

                                              6/4
G|---------------------|--------------------|---------------------------|
D|---------------------|--------------------|---------------------------|
A|-----------5---5-5/7-|-8---8-10\8---------|---------------------------|
D|-3---3-3/5-----------|------------0-------|-(0)---------8p7--8--7--5--|


G|-------------------|----------5h7-7-7-7p5----|---------------------|
D|-------------------|----------------------5\-|---------------------|
A|-------------------|-------------------------|-----------5---5-5/7-|
D|-0--------8\7--\0--|-(0)---------------------|-3---3-3/5-----------|

               let ring
G|-----------------------|-------------------|---------5h7-7-7-7\---|
D|-----------------------|-------------------|----------------------|
A|-8----8----8--8-8--8/10|-------------------|----------------------|
D|-----------------------|-0-----------------|-(0)------------------|


[Chorus 2]
G|--------------------|------------------|--------------------|---------------------|
D|--------------------|------------------|--------------------|---------------------|
A|------5------3h5-5--|------------------|--------------------|-5-5--7--9-9--10--12-|
D|-0--------0---------|-7---7---7--7/9-9-|-5---5---5--5-5--5--|---------------------|

G|--------------------|------------------|--------------------|---------------------|
D|--------------------|------------------|--------------------|---------------------|
A|------------3h5-5/7-|------------------|--------------------|------7--9-9--10--12-|
D|-0---0---0----------|-7---7---7--7h9-9-|-5---5---5--5-5--5--|-0-0-----------------|

G|----------------------|------------------------------|-------------------------|
D|----------------------|------------------------------|-------------------------|
A|----------------------|------------------------------|-------------------------|
D|-0----0----0--0-0---5/|-7-----7-----7--7-7h9-9-9-7-7-|-5---5-5----5--5-5--5----|

G|-------------------------|
D|-------------------------|
A|-5-5---7----9-9--10---12-|
D|-------------------------|


[Bridge]
G|--------------------------|------------------------|-----------------------|
D|--------------------------|------------------------|-----------------------|
A|------5----------3h5-5-5--|------------------------|-----------------------|
D|-0---------0--0-----------|-7----7---7--7-7--7--7--|-9---9---9--9-9--9--9--|
   
G|--------------------|------------------------|------------------------|
D|--------------------|------------------------|------------------------|
A|--------------------|----------------3h5-5/7-|------------------------|
D|-5---5--5-5--0--3p0-|-3-0---0----0-----------|-7----7---7--7-7--7--7--|

G|---------------------------|--------------------|--------------------------|
D|---------------------------|--------------------|--------------------------|
A|---------------------------|--------------------|--------------3h5-5-5-5/7-|
D|-9----9--9-9-10-10-9-12-12\|-5---5--5-5---0-3p0-|-3-0---0---0--------------|

G|-----------------------|--------------------------|-----------------------|
D|---------------7-7-----|--------------------------|-----------------------|
A|-------------7-----7-7-|--------------------------|-----------------------|
D|-7----7--7-7-----------|-9---9h10-10-7-9--9h11-11-|-0-5--0-5--0-5---0-3p0-|

G|--------------------------|------------------------|------------------------|
D|--------------------------|------------------------|------------------------|
A|------5------------5------|------------------------|------------------------|
D|-3p0-------0--0-----------|-7----7---7--7-7-5/7--7-|-9---9---9--9-9-9/11-11-|

G|--------------------|-------------------------|--------------------------|
D|--------------------|-------------------------|------------------7-7-----|
A|--------------------|------5-5--------3h5-5/7-|----------------------7-7-|
D|-5---5--5-5--0--3p0-|-3p0--------0--0---------|-7----7---7--7-7----------|

G|---------------------------|--------------------|------------------|
D|---------------------------|--------------------|------------------|
A|---------------------------|--------------------|------------------|
D|-9----9--9-10-9----9-11-11\|-5---5--5-5----0-3~-|-0----------------|



[Reprise] (4:47)
G|----------------|--------------|-------------|--------------|
D|----------------|--------------|-------------|--------------|
A|----------------|--------------|-------------|--------------|
D|-0--------------|-7------------|-5-----------|-rest---------|


[Final Chorus]
G|--------------------|------------------|--------------------|---------------------|
D|--------------------|------------------|--------------------|---------------------|
A|------5------3h5-5--|------------------|--------------------|-5-5--7--9-9--10--12-|
D|-0--------0---------|-7---7---7--7/9-9-|-5---5---5--5-5--5--|---------------------|

G|---------------------|---------------------|----------------------------|
D|---------------------|-------------7/9-7---|----------------------------|
A|-----5------3h5-5-5-5|------------------9-9|----------------------------|
D|-0------0-0----------|-7---7-7--7----------|-5---5-5-0h3-5--5-5-7-7-9-9-|

G|-------------------------|--------------------------|--------------------------|
D|-------------------------|--------------------------|--------------------------|
A|-5-5---7----9-9--10---12-|------------------------7-|---7-----7----------------|
D|-------------------------|-0---0-0--0--0-0--0-5h7---|-7---7-9-----7---7-9-9-7--|

G|-----------------------|--------------------------|---------|
D|-----------------------|--------------------------|---------|
A|-----------------------|--------------------0-7-0-|---------|
D|-5---5---5-7-7-9-9/10--|-0-0--0-0--0-0--0-0-------|-0-------|


Key:
| /  slide up
| \  slide down
| h  hammer-on
| p  pull-off
| ~  vibrato
Suggest correction
Creating personal tab
Creating personal tab
You can edit any tab online and save it as your Personal.

You can edit, replace or remove any tab part or add personal notes – all changes will be seen only by you.

Personal tabs can be accessed anytime from any device, even offline.
Learn more »
Give kudos to tab author, rate the tab!
1 2 3 4 5
comments
print report bad tab
1 comment total.
+1 reply
jjhand 17,312 Dec 02, 2016 10:51 PM

A lot of different bass licks in this one, but I hope this gives you an idea of how Brian Marshall played this song. The organization of this song is not as tight as Creed's other big hits but it still is a good performance. Please rate or comment

guest
You may want to rate the tab now too:
select rating
Wanna post a correction for this tab? Suggest correction