Oops, an error
Loading. Please wait.
We have an official My Sacrifice tab made by UG professional guitarists. Check out the tab »
×
by Creed
112,094 views 66 this week
31 commentsread comments
1 2 3 4 5
x 55
add to favorites
×
Save as Personal and add changes to this tab that will be seen only by you. Learn more ›
×
You can save this tab as Personal to edit and correct it or add notes. All changes will be seen only by you. Learn more »
launch autoscroll
font size
0
reset
how to read this tab
guitar tuner
backing track
0:00
0:00
edit
Autoscroll
slow
fast
+/-
esc
set tempo
stop
Author
Unregistered
Group:Creed
Song My Sacrifice
tabbed:Fernando Delgado

Gtr I (D A D A D D) - 'Clean'
Gtr II (D A D A D D) - 'Acoustic'
Gtr III (D A D A D D) - 'Electric 1'
Gtr IV (D A D A D D) - 'Electric 2'
Gtr V (D A D A D D) - 'Slighty Distorted'

   Q=73
   Gtr I
e|---------0-----------------------------------------------------0-0-0-0-0--(0)-----0-|
B|-----------0--------------------------0-(0)-0------------------0-0-0-0-0--(0)-----0-|
G|---4---------4---------------------12---------12-----------0-0-5-4-4-5-5--(5)-----5-|
D|-----4---------4-(4)--(x)/------12---------------12-(12)---0-0-0-0-0-0-0--(0)---0-0-|
A|-2-----2-------------------0-10----------------------------0-0-5-4-4-5-5--(5)---5-5-|
E|-----------------------------------------------------------0-0-0-0-0-0-0--(0)---0-0-|

   Gtr II
e|---------------------------------------------------------------0-0-0-0-0--(0)-----0-|
B|---------------------------------------------------------------0-0-0-0-0--(0)-----0-|
G|-----------------------------------------------------------0-0-5-4-4-5-5--(5)-----5-|
D|-----------------------------------------------------------0-0-0-0-0-0-0--(0)---0-0-|
A|-----------------------------------------------------------0-0-5-4-4-5-5--(5)---5-5-|
E|-----------------------------------------------------------0-0-0-0-0-0-0--(0)---0-0-|

   Gtr I
e|-0-0-0-0-0--(0)-0-------------------0---------------------------------------------|
B|-0-0-0-0-0--(0)-0---------------------0-----------------------0-(0)-0-------------|
G|-5-4-4S9-9--(9)-9S10-(10)-0---0---------4------------------12---------12----------|
D|-0-0-0-0-0--(0)-0---------0-----4---------4-(4)---------12---------------12-(12)--|
A|-5-4-4S9-9--(9)-9S10-(10)-0-2-----2---------------0-10----------------------------|
E|-0-0-0-0-0--(0)-0---------0-------------------------------------------------------|

   Gtr II
e|-0-0-0-0-0--(0)-0-------------------0---------------------------------------------|
B|-0-0-0-0-0--(0)-0---------------------0-----------------------0-(0)-0-------------|
G|-5-4-4S9-9--(9)-9s10-(10)-0---0---------4------------------12---------12----------|
D|-0-0-0-0-0--(0)-0---------0-----4---------4-(4)---------12---------------12-(12)--|
A|-5-4-4S9-9--(9)-9s10-(10)-0-2-----2---------------0-10----------------------------|
E|-0-0-0-0-0--(0)-0---------0-------------------------------------------------------|

   Gtrs III, IV
                                                      <
e|----------------------------------------------------------------------------------|
B|----------------------------------------------------------------------------------|
G|----------------------------------------------------------------------------------|
D|----------------------------------------------------[0]---------------------------|
A|----------------------------------------------------[0]---------------------------|
E|----------------------------------------------------[0]---------------------------|

   Gtrs III, IV
e|-0-(0)-0-(0)-0--0---0-(0)-0---0-(0)-(0)-0-(0)-0-(0)-0--0---0-(0)-0---------|
B|-0-(0)-0-(0)-0--0---0-(0)-0---0-(0)-(0)-0-(0)-0-(0)-0--0---0-(0)-0---------|
G|-5s=4--4s=5--5--5---4s=5--5---5s=7s==5--5s=4--4s=5--5--5---4s=5--5---4-0-0-|
D|-0-(0)-0-(0)-0--0---0-(0)-0---0-(0)-(0)-0-(0)-0-(0)-0--0---0-(0)-0---0-0-0-|
A|-5s=4--4s=5--5--5---4s=5--5---5s=7s==5--5s=4--4s=5--5--5---4s=5--5---4-0-0-|
E|-0-(0)-0-(0)-0--0-0-0-(0)-0-0-0-(0)-(0)-0-(0)-0-(0)-0--0-0-0-(0)-0-0-0-0-0-|

                                                   PM|
e|----0--0-0-0-0-0--0--0--0---0---0--0--0--0--0--0-----|
B|----0--0-0-0-0-0--0--0--0---0---0--0--0--0--0--0-----|
G|----4--4-4-4-4-4--x--x-12--12--12-12-12-12-12-12-----|
D|-4--4--4-4-4-4-4S12-12-12--12--12-12-12-12-12-12-0-0-|
A|-2--2--2-2-2-2-2S10-10-10--10--10-10-10-10-10-10-0-0-|
E|-------------------------------------------------0-0-|

                      PM        PM                             PM        PM
e|--0-(0)-0-(0)-0--0---0-(0)-0---0-(0)-(0)-|-0-(0)-0-(0)-0--0---0-(0)-0--------|
B|o-0-(0)-0-(0)-0--0---0-(0)-0---0-(0)-(0)-|-0-(0)-0-(0)-0--0---0-(0)-0--------|
G|--5s=4--4s=5--5--5---4s=5--5---5s=7s==5--|-5s=4--4s=5--5--5---4s=5--5---4-0-0|
D|--0-(0)-0-(0)-0--0---0-(0)-0---0-(0)-(0)-|-0-(0)-0-(0)-0--0---0-(0)-0---0-0-0|
A|o-5s=4--4s=5--5--5---4s=5--5---5s=7s==5--|-5s=4--4s=5--5--5---4s=5--5---4-0-0|
E|--0-(0)-0-(0)-0--0-0-0-(0)-0-0-0-(0)-(0)-|-0-(0)-0-(0)-0--0-0-0-(0)-0-0-0-0-0|

                                                     PM|
e|----0--0-0-0-0-0--0--0-|--0---0---0--0--0--0--0--0------||
B|----0--0-0-0-0-0--0--0-|--0---0---0--0--0--0--0--0-----o||
G|----4--4-4-4-4-4--x--x-|-12--12--12-12-12-12-12-12------||
D|-4--4--4-4-4-4-4S12-12-|-12--12--12-12-12-12-12-12-0-0--||
A|-2--2--2-2-2-2-2S10-10-|-10--10--10-10-10-10-10-10-0-0-o||
E|-----------------------|---------------------------0-0--||

     Gtrs I, III, IV
e|--0--0--0-/7-5-4-------------0-0-0-0-0-0-0-0----|
B|o-0--0--0--0-0-0-------------0-0-0-0-0-0-0-0----|
G|--0--0--0--0-0-0-0-0-0-------0-0-0-0-0-0-0-0-0-0|
D|--0--0--0--0-0-0-0-0-0-7-7-7-7-7-7-7-7-7-7-7-0-0|
A|o-0--0--0--0-0-0-0-0-0-4-4-4-4-4-4-4-4-4-4-4-0-0|
E|--0--0--0--0-0-0-0-0-0-----------------------0-0|

                               1.
                                             PM    PM
e|----------------------------------------------------------------||
B|---------------------------------------------------------------o||
G|----------------------12----------------------------------------||
D|-11--11--11-11h12--12-12-9-0-5-(5)-5-5-5-5-0-5s3-0-3-(3)-3-5-3--||
A|--9---9---9--9-(9)--9--9-9-0-5-(5)-5-5-5-5-0-5s3-0-3-(3)-3-5-3-o||
E|--9---9---9--9-(9)--9--9-9-0-5-(5)-5-5-5-5-0-5s3-0-3-(3)-3-5-3--||

   2.
                 PM
e|-------------------------------0--|
B|-------------------------------0--|
G|-------------------------------0--|
D|-5-(5)-5-5-5-5-0-5s3-0-3-(3)-0-0--|
A|-5-(5)-5-5-5-5-0-5s3-0-3-(3)-0-0--|
E|-5-(5)-5-5-5-5-0-5s3-0-3-(3)-0-0--|

   Gtrs III, IV
e|-0-(0)-0-(0)-0--0---0-(0)-0---0-(0)-(0)-0-(0)-0-(0)-0--0---0-(0)-0---------|
B|-0-(0)-0-(0)-0--0---0-(0)-0---0-(0)-(0)-0-(0)-0-(0)-0--0---0-(0)-0---------|
G|-5s=4--4s=5--5--5---4s=5--5---5s=7s==5--5s=4--4s=5--5--5---4s=5--5---4-0-0-|
D|-0-(0)-0-(0)-0--0---0-(0)-0---0-(0)-(0)-0-(0)-0-(0)-0--0---0-(0)-0---0-0-0-|
A|-5s=4--4s=5--5--5---4s=5--5---5s=7s==5--5s=4--4s=5--5--5---4s=5--5---4-0-0-|
E|-0-(0)-0-(0)-0--0-0-0-(0)-0-0-0-(0)-(0)-0-(0)-0-(0)-0--0-0-0-(0)-0-0-0-0-0-|

                                                   PM|
e|----0--0-0-0-0-0--0--0--0---0---0--0--0--0--0--0-----|
B|----0--0-0-0-0-0--0--0--0---0---0--0--0--0--0--0-----|
G|----4--4-4-4-4-4--x--x-12--12--12-12-12-12-12-12-----|
D|-4--4--4-4-4-4-4S12-12-12--12--12-12-12-12-12-12-0-0-|
A|-2--2--2-2-2-2-2S10-10-10--10--10-10-10-10-10-10-0-0-|
E|-------------------------------------------------0-0-|

                      PM        PM                           PM        PM
e|--0-(0)-0-(0)-0--0---0-(0)-0---0-(0)-(0)-0-(0)-0-(0)-0--0---0-(0)-0---------|
B|o-0-(0)-0-(0)-0--0---0-(0)-0---0-(0)-(0)-0-(0)-0-(0)-0--0---0-(0)-0---------|
G|--5s=4--4s=5--5--5---4s=5--5---5s=7s==5--5s=4--4s=5--5--5---4s=5--5---4-0-0-|
D|--0-(0)-0-(0)-0--0---0-(0)-0---0-(0)-(0)-0-(0)-0-(0)-0--0---0-(0)-0---0-0-0-|
A|o-5s=4--4s=5--5--5---4s=5--5---5s=7s==5--5s=4--4s=5--5--5---4s=5--5---4-0-0-|
E|--0-(0)-0-(0)-0--0-0-0-(0)-0-0-0-(0)-(0)-0-(0)-0-(0)-0--0-0-0-(0)-0-0-0-0-0-|

                                                   PM|
e|----0--0-0-0-0-0--0--0--0---0---0--0--0--0--0--0------||-|
B|----0--0-0-0-0-0--0--0--0---0---0--0--0--0--0--0-----o||-|
G|----4--4-4-4-4-4--x--x-12--12--12-12-12-12-12-12------||-|
D|-4--4--4-4-4-4-4S12-12-12--12--12-12-12-12-12-12-0-0--||-|
A|-2--2--2-2-2-2-2S10-10-10--10--10-10-10-10-10-10-0-0-o||-|
E|-------------------------------------------------0-0--||-|

     Gtrs I, III, IV
e|--0--0--0-/7-5-4-------------0-0-0-0-0-0-0-0----|
B|o-0--0--0--0-0-0-------------0-0-0-0-0-0-0-0----|
G|--0--0--0--0-0-0-0-0-0-------0-0-0-0-0-0-0-0-0-0|
D|--0--0--0--0-0-0-0-0-0-7-7-7-7-7-7-7-7-7-7-7-0-0|
A|o-0--0--0--0-0-0-0-0-0-4-4-4-4-4-4-4-4-4-4-4-0-0|
E|--0--0--0--0-0-0-0-0-0-----------------------0-0|

                               1.
                                             PM    PM
e|----------------------------------------------------------------||
B|---------------------------------------------------------------o||
G|----------------------12----------------------------------------||
D|-11--11--11-11h12--12-12-9-0-5-(5)-5-5-5-5-0-5s3-0-3-(3)-3-5-3--||
A|--9---9---9--9-(9)--9--9-9-0-5-(5)-5-5-5-5-0-5s3-0-3-(3)-3-5-3-o||
E|--9---9---9--9-(9)--9--9-9-0-5-(5)-5-5-5-5-0-5s3-0-3-(3)-3-5-3--||

   2.
e|-----------------------------------|
B|-----------------------------------|
G|-----------------------------------|
D|-5-(5)-5-5-5-5-0-5s3-0-3-(3)-3-3-3-|
A|-5-(5)-5-5-5-5-0-5s3-0-3-(3)-3-3-3-|
E|-5-(5)-5-5-5-5-0-5s3-0-3-(3)-3-3-3-|

     Gtrs III, IV
     PM          PM          PM          PM|
e|----0-(0)-0-0---0-(0)-0-0---0-(0)-0-0-----0-(0)-0-0-0-(0)-0-(0)-0-(0)-0-0--||
B|o---0-(0)-0-0---0-(0)-0-0---0-(0)-0-0-----0-(0)-0-0-0-(0)-0-(0)-0-(0)-0-0-o||
G|----9s=7--7-7---7s=5--5-5---5s=4--4-4-----2s=4--4-4-5s=4--4s=7--7s=5--5-5--||
D|----0-(0)-0-0---0-(0)-0-0---0-(0)-0-0-----0-(0)-0-0-0-(0)-0-(0)-0-(0)-0-0--||
A|o---9s=7--7-7---7s=5--5-5---5s=4--4-4-----2s=4--4-4-5s=4--4s=7--7s=5--5-5-o||
E|--0-0-(0)-0-0-0-0-(0)-0-0-0-0-(0)-0-0-0-0-0-(0)-0-0-0-(0)-0-(0)-0-(0)-0-0--||

                                                                               >
   PM            PM                               PM            PM--|
                                                                |-3-|
e|----0--0--0--0----0--0--0--0---------0--0--0--0----0--0--0--0-----------------------|
B|----0--0--0--0----0--0--0--0---------0--0--0--0----0--0--0--0-----------------------|
G|---13-13-13-13---13-13-13-13--------13-13-13-13---13-13-13-13-----------------------|
D|----0--0--0--0----0--0--0--0---------0--0--0--0----0--0--0--0-------0--------(0)----|
A|---13-13-13-13---13-13-13-13-17\----13-13-13-13---13-13-13-13-------0--------(0)----|
E|-0--0--0--0--0-0--0--0--0--0-17\-----0--0--0--0-0--0--0--0--0-0-0-0-0--------(0)----|

   Gtr I
e|---------------------------------------------0---0-0-0-/7-5-4--------|
B|---------------------------------------------0---0-0-0--0-0-0--------|
G|---------------------------------------------0---0-0-0--0-0-0-0-0----|
D|---------------------------------------------0---0-0-0--0-0-0-0-0----|
A|---------------------------------------------0---0-0-0--0-0-0-0-0----|
E|---------------------------------------------0---0-0-0--0-0-0-0-0----|

   Gtr II
e|-----------------------------------------------0---0-0-0-/7-5-4--------|
B|-----------------------------------------------0---0-0-0--0-0-0--------|
G|-----------------------------------------------0---0-0-0--0-0-0-0-0----|
D|-----------------------------------------------0---0-0-0--0-0-0-0-0----|
A|-----------------------------------------------0---0-0-0--0-0-0-0-0----|
E|-----------------------------------------------0---0-0-0--0-0-0-0-0----|

   Gtr I
e|-0-0-0-0-0-0-0-0-0-0-0------------------0--0--0--------------0---|
B|-0-0-0-0-0-0-0-0-0-0-0------------------0--0--0--------0-(0)-----|
G|-0-0-0-0-0-0-0-0-0-0-0------------------0--0--0------0---------0-|
D|-7-7-7-7-7-7-7-7-7-7-7-/11-11-11-11-11-11-11-11---11-------------|
A|-4-4-4-4-4-4-4-4-4-4-4---0--0--9--9--9--9--9--9-9----------------|
E|-------------------------0--0--9--9--9--9--9--9------------------|

   Gtr II
e|-0-0-0-0-0-0-0-0-0-0-0------------------0--0--0--------------0---|
B|-0-0-0-0-0-0-0-0-0-0-0------------------0--0--0--------0-(0)-----|
G|-0-0-0-0-0-0-0-0-0-0-0------------------0--0--0------0---------0-|
D|-7-7-7-7-7-7-7-7-7-7-7-/11-11-11-11-11-11-11-11---11-------------|
A|-4-4-4-4-4-4-4-4-4-4-4---0--0--9--9--9--9--9--9-9----------------|
E|-------------------------0--0--9--9--9--9--9--9------------------|

   Gtr I
e|-5-----------------------------0--0-0-0-0-/7---7-(7)-7-7-7-0-0-0-0-0-0-0-0-0-0-0-----|
B|-5-----5-5-5-5-5-5-5-(5)-5-5-5-0--0-0-0-0--0---0-(0)-0-0-0-0-0-0-0-0-0-0-0-0-0-0-----|
G|-5-----5-5-5-5-5-5-5-(5)-5-5-5-0--0-0-0-0--0---0-(0)-0-0-0-0-0-0-0-0-0-0-0-0-0-0-----|
D|-7-----7-7-7-7h9-9-9-(9)-7-7-7-0--0-0-0-0--0-0-0-(0)-0-0-0-7-7-7-7-7-7-7-7-7-7-7-0-0-|
A|-5-(5)-5-5-5-5-5-5-5-(5)-5-5-5-0--0-0-0-0--0-0-0-(0)-0-0-0-4-4-4-4-4-4-4-4-4-4-4-0-0-|
E|-5-(5)-5-5-5-5-5-5-5-(5)-5-5-5-0--0-0-0-0--0-0-0-(0)-0-0-0-----------------------0-0-|

  Gtr II
e|-5-----------------------------0--0-0-0-0-/7---7-(7)-7-7-7-0-0-0-0-0-0-0-0-0-0-0-----|
B|-5-----5-5-5-5-5-5-5-(5)-5-5-5-0--0-0-0-0--0---0-(0)-0-0-0-0-0-0-0-0-0-0-0-0-0-0-----|
G|-5-----5-5-5-5-5-5-5-(5)-5-5-5-0--0-0-0-0--0---0-(0)-0-0-0-0-0-0-0-0-0-0-0-0-0-0-----|
D|-7-----7-7-7-7h9-9-9-(9)-7-7-7-0--0-0-0-0--0-0-0-(0)-0-0-0-7-7-7-7-7-7-7-7-7-7-7-0-0-|
A|-5-(5)-5-5-5-5-5-5-5-(5)-5-5-5-0--0-0-0-0--0-0-0-(0)-0-0-0-4-4-4-4-4-4-4-4-4-4-4-0-0-|
E|-5-(5)-5-5-5-5-5-5-5-(5)-5-5-5-0--0-0-0-0--0-0-0-(0)-0-0-0-----------------------0-0-|

   Gtr I                                        Gtr III
                                                                PM|
e|-----0--0--0--0--0-----------------------------------------------------|
B|-----0--0--0--0--0--------0---0-0--------------------------------------|
G|-----0--0--0--0--0------0---0---0-5-5-5-5-5-5-x-x-x-x---x-----x--------|
D|-11-11-11-11-11-11---11---------0-7-7-7-7-7-7-x-x-x-x---x-----x--------|
A|--9--9--9--9--9--9-9------------0-5-5-5-5-5-5-x-x-x-x---x-----x--------|
E|--9--9--9--9--9--9--------------0-5-5-5-5-5-5-x-x-x-x-<2.6>-<2.6>-0-0--|

   Gtr II                                       Gtr IV
                                                                PM|
e|-----0--0--0--0--0-----------------------------------------------------|
B|-----0--0--0--0--0--------0---0-0--------------------------------------|
G|-----0--0--0--0--0------0---0---0-5-5-5-5-5-5-x-x-x-x---x------x-------|
D|-11-11-11-11-11-11---11---------0-7-7-7-7-7-7-x-x-x-x---x------x-------|
A|--9--9--9--9--9--9-9------------0-5-5-5-5-5-5-x-x-x-x---x------x-------|
E|--9--9--9--9--9--9--------------0-5-5-5-5-5-5-x-x-x-x-<2.6>-<2.6>-0-0--|

e|-0--0--0-/7-5-4-------------0-0-0-0-0-0-0-0-----|
B|-0--0--0--0-0-0-------------0-0-0-0-0-0-0-0-----|
G|-0--0--0--0-0-0-0-0-0-------0-0-0-0-0-0-0-0-0-0-|
D|-0--0--0--0-0-0-0-0-0-7-7-7-7-7-7-7-7-7-7-7-0-0-|
A|-0--0--0--0-0-0-0-0-0-4-4-4-4-4-4-4-4-4-4-4-0-0-|
E|-0--0--0--0-0-0-0-0-0-----------------------0-0-|

                                             PM    PM
e|---------------------------------------------------------------|
B|---------------------------------------------------------------|
G|----------------------12---------------------------------------|
D|-11--11--11-11h12--12-12-9-0-5-(5)-5-5-5-5-0-5s3-0-3-(3)-3-5-3-|
A|--9---9---9--9-(9)--9--9-9-0-5-(5)-5-5-5-5-0-5s3-0-3-(3)-3-5-3-|
E|--9---9---9--9-(9)--9--9-9-0-5-(5)-5-5-5-5-0-5s3-0-3-(3)-3-5-3-|

e|----0--0-/7-5-4-0-(0)-0-0-0-0-0-0-0-0-0-0-0-0-|
B|----0--0--0-0-0-0-(0)-0-0-0-0-0-0-0-0-0-0-0-0-|
G|----0--0--0-0-0-0-(0)-0-0-0-0-0-0-0-0-0-0-0-0-|
D|-0--0--0--0-0-0-7-(7)-7-7-7-7-7-7-7-7-7-7-0-0-|
A|-0--0--0--0-0-0-4-(4)-4-4-4-4-4-4-4-4-4-4-0-0-|
E|-0--0--0--0-0-0---------------------------0-0-|

e|---------------------------------------------------------------|
B|---------------------------------------------------------------|
G|----------------------12---------------------------------------|
D|-11--11--11-11h12--12-12-9-0-5-(5)-5-5-5-5-0-5s3-0-3-(3)-3-3-3-|
A|--9---9---9--9-(9)--9--9-9-0-5-(5)-5-5-5-5-0-5s3-0-3-(3)-3-3-3-|
E|--9---9---9--9-(9)--9--9-9-0-5-(5)-5-5-5-5-0-5s3-0-3-(3)-3-3-3-|

     PM          PM          PM          PM|
e|----0-(0)-0-0---0-(0)-0-0---0-(0)-0-0-----0-(0)-0-0-0-(0)-0-(0)-0-(0)-0-0--||
B|o---0-(0)-0-0---0-(0)-0-0---0-(0)-0-0-----0-(0)-0-0-0-(0)-0-(0)-0-(0)-0-0-o||
G|----9s=7--7-7---7s=5--5-5---5s=4--4-4-----2s=4--4-4-5s=4--4s=7--7s=5--5-5--||
D|----0-(0)-0-0---0-(0)-0-0---0-(0)-0-0-----0-(0)-0-0-0-(0)-0-(0)-0-(0)-0-0--||
A|o---9s=7--7-7---7s=5--5-5---5s=4--4-4-----2s=4--4-4-5s=4--4s=7--7s=5--5-5-o||
E|--0-0-(0)-0-0-0-0-(0)-0-0-0-0-(0)-0-0-0-0-0-(0)-0-0-0-(0)-0-(0)-0-(0)-0-0--||

   PM            PM
e|----0--0--0--0----0--0--0--0------|
B|----0--0--0--0----0--0--0--0------|
G|---13-13-13-13---13-13-13-13------|
D|----0--0--0--0----0--0--0--0-x\\--|
A|---13-13-13-13---13-13-13-13-x\\--|
E|-0--0--0--0--0-0--0--0--0--0------|

                 PM            PM--|
                               |-3-|
e|----0--0--0--0----0--0--0--0-------|----------|--------|
B|----0--0--0--0----0--0--0--0-------|----------|--------|
G|---13-13-13-13---13-13-13-13-------|----------|--------|
D|----0--0--0--0----0--0--0--0-------|-0--------|-(0)----|
A|---13-13-13-13---13-13-13-13-------|-0--------|-(0)----|
E|----0--0--0--0-0--0--0--0--0-0-0-0-|-0--------|-(0)----|

e|--0---0--0-5s=7--5-4------0--0--0-0-0-0-0-0-0-0-------------------------------------|
B|--0---0--0-0-(0)-0-0------0--0--0-0-0-0-0-0-0-0-------------------------------------|
G|--0---0--0-0-(0)-0-0------0--0--0-0-0-0-0-0-0-0-------------------------------------|
D|--0---0--0-0-(0)---0-0-0--7--7--7-7-7-7-7-7-0-0-------------------------------------|
A|--0---0--0-0-(0)---0-0-0--4--4--4-4-4-4-4-4-0-0-9-----------------------------------|
E|--0---0--0-0-(0)---0-0-0--------------------0-0-9-----------------------------------|

e|------------------------------------------------------------------|
B|------------------------------------------4-4-4-4-(4)-5-5-5-5-----|
G|--------------------12-11---0-0-(0)-0--0--0-0-0-0-(0)-0-0-0-0-0-0-|
D|-11-11--11--11h=12--11-11-0-0-0-(0)-0--0--0-0-0-0-(0)---0-0-0-0-0-|
A|--9-(9)-(9)-(9)-(9)--9--9-0-0-5-(5)-5--5--5-5-0-0-(0)---5-5-5-0-0-|
E|--9-(9)-(9)-(9)-(9)--9--9-0-0-5-(5)-5--5--5-5-5-5-(5)---5-5-5-0-0-|

  Gtr V
e|-0-(0)-0-0-0-0-0-/7-7-7-(7)-7-0--|
B|-0-(0)-0-0-0-0-0--0-0-0-(0)-0-0--|
G|-0h=2--2-2-0-0-0--0-0-0-(0)-0-0--|
D|-0-(0)-0-0-0-0-0--0-0-0-(0)-0-0--|
A|-0-(0)-0-0-0-0-0--0-0-0-(0)-0-0--|
E|-0-(0)-0-0-0-0-0--0-0-0-(0)-0-0--|

************************************

| (n)  Ghost note
| [n]  Artificial harmonic (Pinch harmonic)
| x    Dead note
| PM   Palm mute
| /    Slide up
| h    Hammer-on
| \    Slide down
| >    Accented note

************************************
Suggest correction
Creating personal tab
Creating personal tab
You can edit any tab online and save it as your Personal.

You can edit, replace or remove any tab part or add personal notes – all changes will be seen only by you.

Personal tabs can be accessed anytime from any device, even offline.
Learn more »
comments
print report bad tab
31 comments total. Showing first comments.
0 reply
sheriffvalenti 170 May 16, 2002 08:00 PM

awesome tab man! great stuff!

-1 reply
Rage 382 May 17, 2002 08:00 PM

Great!!! But there's only one guitar in the whole song.

0 reply
halfdan 330 Jun 10, 2002 08:00 PM

Best version I've seen in open D5. Really nice.

guest
Wanna post a correction for this tab? Suggest correction