Oops, an error
Loading. Please wait.

On My Sleeve bass

version 1
version 1

Whole song

Interactive

by Creed
327 views 3 this week
no commentswrite comment
1 2 3 4 5
1 last vote to show rating
add to favorites
×
Save as Personal and add changes to this tab that will be seen only by you. Learn more ›
×
You can save this tab as Personal to edit and correct it or add notes. All changes will be seen only by you. Learn more »
launch autoscroll
font size
0
reset
guitar tuner
edit
Autoscroll
slow
fast
+/-
esc
set tempo
stop
Creed - "On My Sleeve"
From the 'Full Circle' Album
Standard 5 string tuning
tabbed by jjhand

Here's a challenging bass part by Brian from Full Circle. Hope you like, 
and please comment/rate the tab.

Intro is guitar until just before verse


  (0:18)       Verse Starts
G|----------||-------------|-------------|---------------|---------------|
D|----------||-------------|-------------|---------------|---------------|
A|----------||-------------|-------------|---------------|---------------|
E|----------||-------5-----|-------7-----|-------5---5h7-|---------------|
B|-12\------||-2-----------|-5-----------|-2-------------|-5-----0-----0-|

G|---------------|-------------9-8-|-------------------|----------------|
D|---------------|-----------------|-------------------|----------------|
A|---------------|-----------------|-------------------|----------------|
E|-----4h5---5h7-|-----5/7-7-------|-------2-4-5-5--/7-|-------5/7--7---|
B|-2-------------|-5---------------|-2-2---------------|-5--5-----------|



Prechorus
G|------------------|-------------------|----------------|----------------|
D|------------------|-------------------|----------------|----------------|
A|------------------|-------------------|----------------|----------------|
E|-5-------5-5------|---------------2-4-|-5------5-5---5-|-4--------------|
B|--------------5-4-|-2-----2-2-2-------|----------------|----------------|


Chorus 1
G|--------------------|------------------------|------------------------|
D|--------------------|------------------------|------------------------|
A|--------------------|------------------------|------------------------|
E|---------5-5--5--77-|------------------------|--------------------2-4-|
B|-2------------------|-5-------5-0-5---5--7-7-|-4----4----4--4--4------|

G|-------------------------|-------------------|-------------------|
D|-------------------------|-------------------|-------------------|
A|-------------------------|-------------------|-------------------|
E|-5--5-5-5---5---5--------|---------5-5-----7-|-------------------|
B|---------------------5-4-|-2-----------------|-5-------5-0-5---5-|

G|------------------------|-----
D|------------------------|-----
A|------------------------|-----
E|--------------------2-4-|-5---
B|-4----4----4--4--4------|-----



Play Verse Again Similar to before


Play Prechorus


Play Chorus again, but change ending bar to:
G|---------------------------------|
D|---------------------------------|
A|---------------------------------|
E|-5-5-5-5-5-5-5-5-5-5-5-5-5-5-5-5-|
B|---------------------------------|

|------------------------------------------|
|-----------------11-9-7-------------------|
|-----------------------11-9-7-------------|
|-5-5-5-5-5-5-5-5-------------11-9-7-------|
|-----------------------------------10-9-7-|


Bridge:
G|----9-9-9--8---8-------|-------------------|----------------------|
D|-----------------------|-------------------|----------------------|
A|-----------------------|-------------------|--------7--7-/9-------|
E|-9---------------------|-------------------|-0--0-0---------------|
B|-------------------2-5-|-2--5-5-5--4--4----|------------------5-7-|

G|---------------------|----9-9-9--8--8-------|------------------|
D|---------------------|----------------------|------------------|
A|---------------------|----------------------|------------------|
E|-----------------9-7-|-9--------------------|------------------|
B|-4--4-4-4--4--/9-----|------------------2-5-|-2--5-5-5--4--4---|

G|-----------------------|-----------------------------------|
D|-----------------------|--------------7-6-4----------------|
A|--------------7--/9--9-|-------------------7-6-4-----------|
E|-0--0-0-0--0-----------|------------------------7-5-4------|
B|-----------------------|-4--4-4-4--4-----------------7-5-4-|



Play Chorus Again like Chorus 2 (3:18)


Play Bridge Slightly Different (Ending)

G|----9-9-9--8---8-------|----9-9-9--8--8-----|----------------------|
D|-----------------------|--------------------|----------------------|
A|---------------------7-|--------------------|--------------7/9--9--|
E|-9-----------------9---|-9------------------|-0--0-0-0--0----------|
B|-----------------------|--------------------|----------------------|

G|---------------------------------|
D|---------------------------------|
A|----6-6-6--6-6-6-----------------|
E|---------------------------------|
B|-4-------------------------------|
Suggest correction
Creating personal tab
Creating personal tab
You can edit any tab online and save it as your Personal.

You can edit, replace or remove any tab part or add personal notes – all changes will be seen only by you.

Personal tabs can be accessed anytime from any device, even offline.
Learn more »
Give kudos to tab author, rate the tab!
1 2 3 4 5
comments
print report bad tab
guest
You may want to rate the tab now too:
select rating
Wanna post a correction for this tab? Suggest correction