Oops, an error
Loading. Please wait.

One Last Breath Tab

1,622,048 views 1,530 this week
173 commentsread comments
1 2 3 4 5
x 647
add to favorites
launch autoscroll
font size
0
reset
how to read this tab
guitar tuner
Autoscroll
slow
fast
+/-
esc
set tempo
stop
Help us to improve Ultimate-Guitar.com Take our survey!
×
Tuning
E A D G B E
One Last Breath
By: Creed
Album: Weathered
Tabbed by: Aarron Williams
E-mail: silverfishgpm@hotmail.com


[Riff 1]

E|-2----5----0h2------|------------------------|-----------------|-------------3-2--|
B|----------------3---|---2-3-3h5----5p3p2h3---|-0---3---2h3-----|---------3--------|
G|------------------2-|------------------------|-------------4---|-----0-----2------|
D|-0-0----0-----------|------------------------|---------------0-|---0---0----------|
A|--------------------|-0----------0---------0-|---2---2---------|------------------|
E|--------------------|------------------------|-----------------|-3----------------|

E|-2----3-2-0h2p0-----|----------------------|---------2--------|-----------3---------|
B|--------------------|---------2-2h3p2------|-------2---2------|-------------3-------|
G|--------------------|------2-------------0-|-----4-------4----|--------4------4-----|
D|-0-0------------0---|---2-------------4----|---4-----------4--|------5----------5---|
A|------------------4-|-0--------------------|-2----------------|----5----------------|
E|--------------------|----------------------|------------------|--3------------------|


[Riff 2a]  - Strumming patterns not shown

E|----------------------3-------------------------------------------|
B|---------------2------3--------------------------------------------|
G|-7------3------4------4---------------------------------------------|
D|-7------4------4------5---------------------------------------------|
A|-5------4------2------5---------------------------------------------|
E|--------2-------------3--------------------------------------------|


[Riff 2b] - Same as Riff 2a, only with distortion


[Riff 3]

E|--------------------------------------------------------------------|
B|--------------------------------------------------------------------|
G|-4-------------4----------------------------------------------------|
D|-4------5------4------5---------------------------------------------|
A|-2------5------2------5---------------------------------------------|
E|--------3-------------3--------------------------------------------|


[Riff 4]

E|--------------------------------------------------------------------|
B|--------------------------------------------------------------------|
G|---------7---------------------------------------------------------|
D|-2---5---7----7----9----5-------------------------------------------|
A|-2---5---5----7----9----5-------------------------------------------|
E|-0---3--------5----7----3------------------------------------------|


[Riff 5]

E|-2----5----0h2------------------------------------------------------------------3---|
B|----------------3------2-3-3h5---3h5p3p2h3-0-----3----2h3-------------------3-------|
G|------------------2-------------------------------------------4---------0-----2-----|
D|-0-0----0-------------------------------------------------------0-----0---0---------|
A|---------------------0----------0--------------2--2--------2------------------------|
E|--------------------------------------------------------------------3---------------|

Riff 1    3x
Riff 2a   2x
Riff 1    3x
Riff 2b   4x
Riff 3    1x
Riff 4    2x
Riff 2a   2x
Riff 2b   4x
Riff 5    1x
Suggest correction
comments
print report bad tab
173 comments total. Showing first comments.
0 reply
j.Page 10 Nov 26, 2001 12:00 AM

Good job man! I've been trying myself and was unsure of the ending part of the riff. GREAT

+1 reply
Rage 382 Jan 23, 2002 12:00 AM

This is perfect. Great tab!

+2 reply
blackbelt 150 Jan 29, 2002 12:00 AM

what are the chords used when playing the finger-picking parts in this version?...

guest
You may want to rate the tab now too:
select rating
Wanna post a correction for this tab? Suggest correction