Oops, an error
Loading. Please wait.

Overcome bass

version 1
version 1

Whole song

Interactive

by Creed
3,997 views 9 this week
2 commentsread comments
1 2 3 4 5
1 last vote to show rating
add to favorites
×
Save as Personal and add changes to this tab that will be seen only by you. Learn more ›
×
You can save this tab as Personal to edit and correct it or add notes. All changes will be seen only by you. Learn more »
launch autoscroll
font size
0
reset
guitar tuner
edit
Autoscroll
slow
fast
+/-
esc
set tempo
stop
Author
================================================================
                     Overcome - Creed
================================================================
                   As recorded by Creed
             (From the 2009 Album Full Circle)

Words and Music by Creed


Tuning: (B E A D G) - '5 String Bass Standard Tuning'

*You can play this with a 4 string if you tune down to
B E A D because you don't use the bottom G on a 5 
string on this song.


Intro Riff (2x):

G---------------------------|-----------------------|
D---------------------------|-----------------------|
A---------------------------|-----------------------|
E----------3-----------5-3--|------------3----------|
B--3--5--5---5--5-3-5-------|-----3-5--5---5-3------|


Verse (2x):

G--------------------------|--------------------------|
D--------------------------|--------------------------|
A--------------------------|--------------------------|
E--------3-----------------|--------3-----------------|
B--5--------5-----0--3--0--|--5--------5-----0--3--0--|


G--------------------------|--------------------------|
D--------------------------|--------------------------|
A--------------------------|--------------------------|
E--------------------------|--------------------------|
B--1-----3--1--------------|--3-----5--3--------------|


Pre-Chorus (1x):

G--------------------------|--------------------------|
D--------------------------|--------------------------|
A--------------------------|--------------------------|
E--------3-----------------|--------3-----------------|
B--5--------5-----0--3--0--|--5--------5-----0--3--0--|


G--------------------------|--------------------------|
D--------5-----------------|--------7-----------------|
A--3--------3--------------|--5--------5--------------|
E--------------------------|--------------------------|
B--------------------------|--------------------------|


G--------------------------|----------------------------|
D--------------------------|----------------------------|
A--------------------------|----------------------------|
E--------3-----------------|----------------------------|
B--5--------5-----0--3--0--|--5---5-5--5---5-5--0-0-0-0-|


Chorus (2x):

G-----------------------------|-----------------------------|
D-----------------------------|-----------------------------|
A-----------------------------|-----------------------------|
E-----------------------------|-----------------------------|
B--1----1---1-1-1-1-----1---1-|--5----5---5-5-5-5-----5---5-|


G-----------------------------|--------------------------|
D-----------------------------|--------------------------|
A-----------------------------|--------------------------|
E-----------------------------|--------------------------|
B--3----3---3-3-3-3-----3---3-|--5----5---5-5--3----3----|


Chorus Ending (1x):

G-----------------------------|
D-----------------------------|
A-----------------------------|
E-----------------------------|
B--1----1---1-1-1-1-----1-0---|


Ending Riff 1 (3x):

G---------------------------|
D---------------------------|
A---------------------------|
E----------3-----------5-3--|
B--3--5--5---5--5-3-5-------|


Ending Riff 2 (1x):

G------------------------------|---------------|
D------------------------------|---------------|
A------------------------------|---------------|
E--3---------3---------3-------|---------------|
B----5--5--5---5--5--5---5-3-5-|--5-5-5--------|



Order:

Intro Riff..................(2x)
Verse.......................(2x)
Pre-Chorus..................(1x)
Chorus......................(2x)
Chorus Ending...............(1x)
Verse.......................(2x)
Pre-Chorus..................(1x)
Chorus......................(2x)
Chorus Ending...............(1x)
Bridge (Same as Intro Riff).(4x)
Solo (Same as Intro Riff)...(4x)
Chorus......................(4x)
Chorus Ending...............(1x)
Ending Riff 1...............(3x)

            
            
Suggest correction
Creating personal tab
Creating personal tab
You can edit any tab online and save it as your Personal.

You can edit, replace or remove any tab part or add personal notes – all changes will be seen only by you.

Personal tabs can be accessed anytime from any device, even offline.
Learn more »
Give kudos to tab author, rate the tab!
1 2 3 4 5
comments
print report bad tab
2 comments total.
+1 reply
andrewjp123 583 Jun 03, 2010 06:22 AM

sorry, forgot to put the ending riff 2 in the order part. Well, you play it after ending riff 1 at the very ending of the song once.

+2 reply
JimBonJovi 840 Jun 07, 2010 06:10 AM

Great Tab man.

guest
You may want to rate the tab now too:
select rating
Wanna post a correction for this tab? Suggest correction