Oops, an error
Loading. Please wait.
We have an official Time tab made by UG professional guitarists. Check out the tab »
×
by Creed
10,095 views 6 this week
3 commentsread comments
1 2 3 4 5
x 3
add to favorites
×
Save as Personal and add changes to this tab that will be seen only by you. Learn more ›
×
You can save this tab as Personal to edit and correct it or add notes. All changes will be seen only by you. Learn more »
launch autoscroll
font size
0
reset
how to read this tab
guitar tuner
edit
Autoscroll
slow
fast
+/-
esc
set tempo
stop
Author
Difficulty
Time - Creed

Tabbed by Tom

Standard Tuning

This isn't the all the pickings that Tremonti does I don't think.  I managed to pick up 
high melody and the sort of bass line he picks at the same time.

The intro probably changes a little when it becomes the verse but it will be subtle 
from the intro so if it sounds wrong when you're half way through a verse, try the immediate 
next to the one you're on instead.

E|------7-----5----7----------------------------|
B|5--8----8-----8----8---5---8-8-------8-7------|
G|------------------------------------------7-4-|
D|----------------------------------------------|
A|7-7-7-7-7-7-5-5-5-5-5-5-------------------5-5-|
E|-----------------------8-8-8-8-8-8-8-8-8-8----|

E|-------7-----5---------10----------------------------|
B|5--8-----8-----8---7-------8-----7-7-5----5-0--------| When it's a verse, change to
G|---------------------------------------------  7-7-5-| (example of the
D|-----------------------------------------------------|  subtle changes)
A|7-7-7-7-7-7-5-5-5-5-5-5-------------------5-5--------|
E|-----------------------8-8-8-8-8-8-8-8-8-8-----------|

Chorus (Easy Strumming pattern to figure out)

Suggested fingering for Cadd9
E|--3--|
B|--3--|
G|--0--|
D|--2--|
A|--3--|
E|-----|


G                                  Em
  This time I have nothing left to lose
                                 Dsus2
  I'm stuck the second hand wont move
                                 Cadd9
  Its about time that I speak my mind

  Its about time, about time to find

Repeat but after the first "Hey time you're no friend of mine" let Cadd9 ring.

Bridge

E|-----7---5---7----------------7--------------|
B|-8-8---8---8---8----5----8---------7--(NH)---|
G|-------------------------------------7-(NH)--|
D|---------------------------------------------|
A|---------------------------------------------|
E|---------------------------------------------|

E|-10-----7------12-----7----------------------------------|
B|-----8----8--------8-----5h7p5-7--8--5--8(AH)5(AH)-------|
G|-----------------------------------------------7---------|(AH)4(AH)
D|---------------------------------------------------------|
A|---------------------------------------------------------|
E|---------------------------------------------------------|

This bit wil change throughout, but once again, subtle changes, easy to figure out 
Repeat this until the chords for the bridge come in.


Slide down just before this kicks in

The chord changes are very obvious in this part so I won't put in the lyrics and drag it out.

E|5     5                        5    5
B|8     5     5  /7   /8   /7    5    8             12   14
G|7     7                        7  7 7              x    x
D|5     7     2  /4   /5   /4    7  5 5  7-9-9-10-7 10   12
A|      5                        5  5 5
E|

Repeat this and then play the chorus then play this twice again.

Then back to the picked part of the bridge.

Any problems then please get in touch with a PM

            
            
Suggest correction
Creating personal tab
Creating personal tab
You can edit any tab online and save it as your Personal.

You can edit, replace or remove any tab part or add personal notes – all changes will be seen only by you.

Personal tabs can be accessed anytime from any device, even offline.
Learn more »
Give kudos to tab author, rate the tab!
1 2 3 4 5
comments
print report bad tab
3 comments total.
0 reply
luthrap 20 Nov 28, 2009 05:16 AM

Who approved this??

0 reply
GuitarScotland 81 Nov 29, 2009 12:30 PM

Yeah, I didn't type this up. Basically a drunk friend at a party got on to UG (I'm always logged on) and typed this up, sent a complaint to UG and changed my contact details to a different email address that I have. He then destroyed the 'z' button on my laptop.

Does anyone know how to remove a tab?

0 reply
Danelg 108 Mar 09, 2010 07:58 AM

i think this is a really good tab. if don't have the time or patient to retune your guitar to tremontis tuning then you
get a good idéa of how you could play this :)

guest
You may want to rate the tab now too:
select rating
Wanna post a correction for this tab? Suggest correction