Oops, an error
Loading. Please wait.

Wash Away Those Years bass

version 1
version 1

Whole song

Interactive

by Creed
853 views 1 this week
no commentswrite comment
1 2 3 4 5
2 more votes to show rating
add to favorites
×
Save as Personal and add changes to this tab that will be seen only by you. Learn more ›
×
You can save this tab as Personal to edit and correct it or add notes. All changes will be seen only by you. Learn more »
launch autoscroll
font size
0
reset
guitar tuner
edit
Autoscroll
slow
fast
+/-
esc
set tempo
stop
Creed - "Wash Away Those Years"
From the "Human Clay" Album
Bass Tuning: DADG
Tabbed By: jjhand

Nice Song with good chords & bass runs. Please rate and comment.


Chorus 1 (1:26) - No Bass until First Chorus
G|--------------|--------------|--------------|---------------|
D|--------------|--------------|--------------|---------------|
A|------------0-|--------------|--------------|---------------|
D|-3-------3h5--|-2----2--22---|/5----------6-|-0h6p0---------|
"Well I guess she closed her eyes & just imagined everything's alright"

G|-------------------|--------------|-------------|---------------|
D|-------------------|--------2-----|-------------|---------------|
A|-------------------|------2---2---|-------------|---------------|
D|-3-------0-2-3-5/7-|-2-----------2/5----------6-|-0h6p0---------|
"But she could not hide her tears 'Cause they were sent to wash away 
                                                          those years"

G|--------------|-------------|
D|--------------|-------------|
A|--------------|-------------|
D|-5------------|-0-----------|
 "They were sent to wash away those years"




Verse 1 (2:01)
G|-------------|-------------|--------------|---------------|
D|-------------|---------2-3-|--------------|---------------|
A|-5-------2-3-|-5-----------|-5--------2-3-|---------------|
D|-------------|-------------|--------------|-0-------------|


G|--------------|--------------|---------------|---------------|
D|--------------|----------2-3-|---------------|---------------|
A|-5----5---2-3-|-5------------|-5-----5---2-3-|---------------|
D|--------------|--------------|---------------|-0-------------|
"My anger's violent But still I'm silent When tragedy strikes at home"

G|--------------|--------------|--------------|---------------|
D|--------------|----------0h2-|--------------|---------------|
A|-5--------2-3-|-5------------|-5--------2-3-|---------------|
D|--------------|--------------|--------------|-0-------------|
"I know this decadence Is shared by millions Remember you're not alone"

G|---------------|-------------|
D|---------------|-------------|
A|-5-------------|-5-----------|
D|-------3--5----|------0------|
 "Remember you're not alone"



Chorus 2 (2:49)
G|--------------|--------------|--------------|-------------------|
D|--------------|--------------|--------------|-------------------|
A|------------0-|--------------|--------------|----------5----3h5-|
D|-3-------3h5--|-2----2--2---2/5-----------6-|-0h6p0-------0-----|
 "If you just close your eyes   & just imagine everythings alright"

G|------------------|---------------|--------------|-----------------|
D|------------------|--------2------|--------------|-----------------|
A|------------------|------2----2---|--------------|---------5---3h5-|
D|-3-------3h5p3--0-|-2------------2/5-----------6-|-0h6p0------0----|
 "but do not hide your tears         cause they were sent to wash away 
                                                           those years"

G|-----------------|--------------|--------------|-------------------|
D|-------------5h7-|--------------|--------------|-------------------|
A|------------5----|--------------|--------------|---------------3h5-|
D|-3-------3/5-----|-2----2--2----|/5----------6-|-0h6p0-------0-----|
 "If you just close your eyes   & just imagine everythings alright"

G|------------------|---------------|--------------|----------------|
D|------------------|---------------|--------------|----------------|
A|-----------3h5-5--|---------------|--------------|---------5--3h5-|
D|-3----------------|-2----2--2-----|/5----------6-|-0h6p0----------|
 "but do not hide your tears      cause they were sent to wash away 
                                                           those years"

G|--------------|-------------|--------------|-------------|
D|--------------|-------------|--------------|-------------|
A|--------------|-------------|--------------|-------------|
D|-5------------|-0-----------|-5------------|-0-----------|
"They were sent to wash away those years ..."





Bridge (3:58)

G|--------------------|--------------------------|---------------------|
D|---------3h5-3--1p0-|--------------------------|---------------------|
A|--------------------|-1---------1----1/3\1-1-1-|-1/3---3----5--------|
D|-1------------------|------3-------------------|------------------0--|


G|---------------------|----------------------|----------------------------|
D|---------------------|-----------3h5-3--1p0-|------3---------------------|
A|---------------------|----------------------|-1------1---1p0-1h3-1h3-1-2-|
D|-5----5----5---5p3---|-1--------------------|----------------------------|
                       "For we have crossed many oceans"

G|------------------------|----------------------------|-------------------|
D|------------------------|-------5h7--5---------------|-------------------|
A|-3-3---3----3/5--5------|--------------7-5---2-0-----|-----------------3-|
D|--------------------2-3-|-5---5------------------3-2-|-1----1----1--5----|
 "And we labor    in    between                    In life  there  are many" 

G|-----3---------------------|-----------------------|---------------------|
D|-----------3---------------|-----------------------|---------------------|
A|-1----1------1--0h1-0h1-1/3|-3---3---3-3/5--5------|---------------------|
D|---------------------------|-------------------2-3-|-5---5-5h7--5----7-7-|
 "quotients              And I hope I find    the  mean"


G|---------------------|--------------------------|
D|---------------------|--------------------------|
A|---------------------|---------------0-0-2-2-3--|
D|-5---5-5h7--5----7---|-5---5-5h7--5-------------|
  "the mean,    the mean



Final Chorus (4:46)
G|--------------|---------------|--------------|--------------------|
D|--------------|---------------|--------------|--------------------|
A|------------0-|---------------|--------------|----------5----3h5--|
D|-3-------3h5--|-2----2--2-2--2/5-----------6-|-0h6p0-------0----0-|
 "If you just close your eyes   & just imagine everythings alright"

G|------------------|---------------|--------------|-----------------|
D|------------------|--------2------|--------------|-----------------|
A|------------------|------2----2---|--------------|---------5---3h5-|
D|-3-------3h5p3--0-|-2------------2/5-----------6-|-0h6p0------0----|
 "but do not hide your tears         cause they were sent to wash away 
                                                           those years"

G|-------------------|-----------------|----------------|------------------|
D|-------------------|-----------------|----------------|------------------|
A|-------------------|-----------------|----------------|------------5--3h5|
D|-3----3--3-3/5-5-5-|-2----2--2p0-2---|/5---5--5p0-5--6|-0h6p0----0-------|
 "If you just close your eyes     & just imagine everythings alright"

G|--------------------|----------------|--------------|----------------|
D|--------------------|---------2------|--------------|----------------|
A|-----------3h5----0-|-------2----2---|--------------|------------3h5-|
D|-3----3---3---3-5---|-2-------------2/5-----5-----6-|-0h6p0---0------|
 "but do not hide your tears      cause they were sent to wash away 
                                                           those years"

G|--------------|-------------|--------------|-------------|
D|--------------|-------------|--------------|-------------|
A|--------------|-------------|--------------|-------------|
D|-5------------|-0-----------|-5------------|-0-----------|
"Maybe we can wash away those years, I'm hoping you can wash away those years"



KEY:
| /  slide up
| \  slide down
| h  hammer-on
| p  pull-off
| ~  vibrato
| +  harmonic
| x  Mute note
============================================================================

            
            
Suggest correction
Creating personal tab
Creating personal tab
You can edit any tab online and save it as your Personal.

You can edit, replace or remove any tab part or add personal notes – all changes will be seen only by you.

Personal tabs can be accessed anytime from any device, even offline.
Learn more »
Give kudos to tab author, rate the tab!
1 2 3 4 5
comments
print report bad tab
guest
You may want to rate the tab now too:
select rating
Wanna post a correction for this tab? Suggest correction