Oops, an error
Loading. Please wait.

What If bass

version 3
version 3

Whole song

Interactive

by Creed
1,882 views 3 this week
1 commentread comment
1 2 3 4 5
x 3
add to favorites
×
Save as Personal and add changes to this tab that will be seen only by you. Learn more ›
×
You can save this tab as Personal to edit and correct it or add notes. All changes will be seen only by you. Learn more »
launch autoscroll
font size
0
reset
guitar tuner
backing track
0:00
0:00
edit
Autoscroll
slow
fast
+/-
esc
set tempo
stop
I think it could be played in Drop-C, but I don't like Drop-C, so I didn't tab it that 
It's a very bangin song, so is the video.

__Intro__
G|----------------------|----------------------------------|
D|----------------------|----------------------------------|
A|--5--0--1-1-----------|--5--0--1-1-----------------------|
D|-------------7-7-7-7--|-------------7-7-7-7--6-6--6p5h6--|

Big Bass Slide
G|----------|
D|----------|
A|----------|
D|--13/out--|

__Verse__
G|---------------------------|
D|---------------3-----------|
A|---------3h5-------1-1-----|
D|--0--0-0-----0---0-----3~--|

__Chorus__                     1st                 2nd
G|---------------------|--------------------|---------------5/out--|
D|---------------------|--------------------|------------5---------|
A|--1--1--1-0-1--1-11--|--6--6--6-4-6--6-6--|----------------------|
D|---------------------|--------------------|--6--6-6-6------------|

Part 2
G|------------------------|
D|----------3-------------|
A|------3h5---5--1--------|
D|--0-0-------------x-5~--|

Big Bass Slide
G|--------------|
D|--------------|
A|--------------|
D|--13-13/out---|

__Interlude__ I hate to say it, but this isn't correct, but goes like this.
G|--------------------------------------------------|
D|--------------------------------------------------|
A|--------------------------------------------------|
D|--0--0-0-0--1-0-0--0-1-0-1--0-0-1-000--0-1-0-1----|
  \-------------------Slapped-----------------------|

G|-------------------------------|
D|-------------------------------|
A|---------3-5-3---3-5-3-----5~--|
D|---0-3-5-------5-------3-5-----|

G|------------------|-----------------|
D|------------------|-----------------|
A|------------------|-----------------|
D|--0--0-0-3-0-0-0--|--3-5-3-5-6-5-3--|
Suggest correction
Creating personal tab
Creating personal tab
You can edit any tab online and save it as your Personal.

You can edit, replace or remove any tab part or add personal notes – all changes will be seen only by you.

Personal tabs can be accessed anytime from any device, even offline.
Learn more »
Give kudos to tab author, rate the tab!
1 2 3 4 5
comments
print report bad tab
1 comment total.
0 reply
jervin22000 10 Mar 02, 2014 07:58 PM

nope

guest
You may want to rate the tab now too:
select rating
Wanna post a correction for this tab? Suggest correction