Oops, an error
Loading. Please wait.

With Arms Wide Open Tab

version 7
by Creed
203,854 views 276 this week
12 commentsread comments
1 2 3 4 5
x 45
add to favorites
launch autoscroll
font size
0
reset
how to read this tab
guitar tuner
backing track
0:00
0:00
×
Best way to learn
"With Arms Wide Open"
Autoscroll
slow
fast
+/-
esc
set tempo
stop
Band - Creed
Song - With Arms Wide Open
Album - Human Clay

   D5                   C5                  D5/E                  G/B
      x 5 7 7 x x          x 3 5 x x x          x 7 7 7 x x          x 2 5 x x x

Gtr I (D A D G B E) - 'Gtr. 1 (clean elec. w/wah pedal)'
Gtr II (D A D G B E) - 'Gtr. 2 (clean elec.)'
Gtr III (D A D G B E) - 'Gtr. 3 (clean elec.)'
Gtr IV (D A D G B E) - 'Gtr. 2 (elec. w/dist..)'
Gtr V (D A D G B E) - 'Gtr. 3 (elec. w/dist..)'
Gtr VI (D A D G B E) - 'Gtr. 4 (elec. w/dist and wah pedal)'


[Intro]

 Moderately Slow Q=70
   Csus2                               Gsus4/B
  4/4
   Gtr I
   S S S S S S S S S S S S S S T T S   S S S S S S S S E S S S S T T S
e|-----------------------------------|---------------------------------|
B|-0h1-------1-----1h3---1-----0h1p0-|-0h1-------1-----3---1-----0h1p0-|
G|-----0-------0-----------0---------|-----0-------0---0-----0---------|
D|-------0---------------------------|-------0-------------------------|
A|-3-------3-----3-----3-----3-------|-2-------2-----2---2-----2-------|
E|-----------------------------------|---------------------------------|


   Am11
   S S S S S S S S T T S S S S S S S   S S S S S S S S T T S S S S S S S
e|-----------------------------------|-----------------------------------||
B|-0h1-------1-----0h1p0-------0-----|-0h1-------1-----0h1p0-------0-----||
G|-----0-------0---------0-------0---|-----0-------0---------0-------0---||
D|-------0-----------------0---------|-------0-----------------0---------||
A|-0-------0-----0-----------0-----0-|-0-------0-----0-----------0-----0-||
E|-----------------------------------|-----------------------------------||


[Verse 1]

     Csus2                               Gsus4/B
     Gtr I
     S S S S S S S S S S S S S S T T S   S S S S S S S S E S S S S T T S
e||------------------------------------|---------------------------------|
B||o-0h1-------1-----1h3---1-----0h1p0-|-0h1-------1-----3---1-----0h1p0-|
G||------0-------0-----------0---------|-----0-------0---0-----0---------|
D||--------0---------------------------|-------0-------------------------|
A||o-3-------3-----3-----3-----3-------|-2-------2-----2---2-----2-------|
E||------------------------------------|---------------------------------|


   Am11
   S S S S S S S S T T S S S S S S S   S S S S S S S S T T S S S S S S S
e|-----------------------------------|------------------------------------||
B|-0h1-------1-----0h1p0-------0-----|-0h1-------1-----0h1p0-------0-----o||
G|-----0-------0---------0-------0---|-----0-------0---------0-------0----||
D|-------0-----------------0---------|-------0-----------------0----------||
A|-0-------0-----0-----------0-----0-|-0-------0-----0-----------0-----0-o||
E|-----------------------------------|------------------------------------||


[Chorus 1]

   F5                    FsusCsus2
Gtrs II, III
    H.                   E S S   H.                   E S S
e|-----------------------3-3-3-|-3--------------------------|
B|-!6--------------------6-3-3-|-6------------------------5-|
G|-!5--------------------5-5-5-|-5----------------------4---|
D|-!3--------------------3-5-5-|-5----------------------2---|
A|-!3----------------------3-3-|-3--------------------------|
E|-!3--------------------------|----------------------------|

 Gtr I
 |  E. S +E  E +S  S S S E S S   E. S S S E +S  S S S E S S
e|-----------------------------|-3--3-3-3-3-(3)-3-3-3-3-----|
B|--6--6-(6)-6-(6)-6-6-6-6-----|-3--3-3-3-3-(3)-3-3-3-3-5-5-|
G|--5--5-(5)-5-(5)-5-5-5-5-x-5-|-5--5-5-5-5-(5)-5-5-5-5-4-4-|
D|--3--3-(3)-3-(3)-3-3-3-3-x-5-|-5--5-5-5-5-(5)-5-5-5-5-2-2-|
A|--3--3-(3)-3-(3)-3-3-3-3-x---|-3--3-3-3-3-(3)-3-3-3-3-2-2-|
E|--3--3-(3)-3-(3)-3-3-3-3-----|------------------------2-2-|


                               Dsus2
   H.                   E E     W
e|---------------------------|-!5-----------------|
B|-5--------------------5----|-!5-----------------|
G|-4--------------------4----|-!7-----------------|
D|-2--------------------2-2/-|-!7-----------------|
A|-2--------------------2-2/-|-!5-----------------|
E|-2--------------------2----|-!0-----------------|

 | E. S +S  S E +S  S E E E     E. S S S E +H
e|---------------------------|--5--5-5-5-5-(5)----|
B|-5--5-(5)-5-5-(5)-5-5-5-5--|--5--5-5-5-5-(5)----|
G|-4--4-(4)-4-4-(4)-4-4-4-4--|--7--7-7-7-7-(7)----|
D|-2--2-(2)-2-2-(2)-2-2-2-2--|--7--7-7-7-7-(7)----|
A|-2--2-(2)-2-2-(2)-2-2-2-2--|--5--5-5-5-5-(5)----|
E|-2--2-(2)-2-2-(2)-2-2-2-2--|--------------------|


   Csus2                             Gsus4/B
   Gtrs I, II
   S S S S S S S S S S S S E T T S   S S S S S S S S S S S S S S T T S
e|---------------------------------|------------------------------------|
B|-0h1-------1-----1h3---1---0h1p0-|-0h1-------1-----1h3---1-----0h1p0--|
G|-----0-------0---0-------0-------|-----0-------0---0-------0----------|
D|-------0-------------------------|-------0----------------------------|
A|-3-------3-----3-----3-----------|-2-------2-----2-----2-----2--------|
E|---------------------------------|------------------------------------|


   Am11
   S S S S S S S S S S S S S S S S   S S S S S S S S T T S S S +S  S T T S
e|---------------------------------|---------------------------------------||
B|-0h1-------1-----3p1---1---1-----|-0h1-------1-----0h1p0---1-(1)-0-0h1p0-||
G|-----0-------0---0-----------0---|-----0-------0---------0---------------||
D|-------0-----------------0-----0-|-------0-------------------------------||
A|-0-------0-----0-----3-----------|---------0-----0-----------------------||
E|---------------------------------|---------------------------------------||


[Verse 2]

   Cadd2                              G6/B
   Gtr I
    S S S S S S S S S S S S E T T S    S S S S S S S S S S S S S S T T S
e|----------------------------------|-------------------------------------|
B|--0h1-------1-----1h3---1---0h1p0-|--0h1-------1-----1h3---1-----0h1p0--|
G|------0-------0---0-------0-------|------0-------0---0-------0----------|
D|--------0-------------------------|--------0----------------------------|
A|--3-------3-----3-----3-----------|--2-------2-----2-----2-----2--------|
E|----------------------------------|-------------------------------------|

 | Gtrs II, III
 |  W                                  W
e|-!0-------------------------------|-!0----------------------------------|
B|-!1-------------------------------|-!3----------------------------------|
G|-!0-------------------------------|-!0----------------------------------|
D|-!0-------------------------------|-!0----------------------------------|
A|-!3-------------------------------|-!2----------------------------------|
E|----------------------------------|-------------------------------------|


   Am11                       Am7
    S S S S S S S S T T S S S S  S S S   S S S S S S S S T T S S S S S S S
e|-------------------------------------|-----------------------------------|
B|--0h1-------1-----0h1p0--------0-----|-0h1-------1-----0h1p0-------0-----|
G|------0-------0---------0--------0---|-----0-------0---------0-------0---|
D|--------0-----------------0----------|-------0-----------------0---------|
A|--0-------0-----0-----------0------0-|-0-------0-----0-----------0-----0-|
E|-------------------------------------|-----------------------------------|

 |  H.                        E.     S   W
e|-!0-------------------------3------3-|-0---------------------------------|
B|-!1-------------------------1------1-|-1---------------------------------|
G|-!0-------------------------0--------|-0---------------------------------|
D|-!0-------------------------2--------|-----------------------------------|
A|-!0----------------------------------|-----------------------------------|
E|-------------------------------------|-----------------------------------|


   Csus2                             Gsus4/B
   S S S S S S S S S S S S E T T S   S S S S S S S S S S S S S S T T S
e|---------------------------------|------------------------------------||
B|-0h1-------1-----1h3---1---0h1p0-|-0h1-------1-----1h3---1-----0h1p0--||
G|-----0-------0---0-------0-------|-----0-------0---0-------0----------||
D|-------0-------------------------|-------0----------------------------||
A|-3-------3-----3-----3-----------|-2-------2-----2-----2-----2--------||
E|---------------------------------|------------------------------------||

 | H.                      E S   S   H.                      E   S   S
e|-0-----------------------0-0---0-|-0-----------------------0---0---0--||
B|-1-----------------------1-1---1-|-3-----------------------3---3---3--||
G|-0-----------------------0-0---0-|-0-----------------------0---0---0--||
D|-0-----------------------0-0---0-|-0-----------------------0---0---0--||
A|-3-----------------------3-3---3-|-2-----------------------2---2---2--||
E|---------------------------------|------------------------------------||


   Am11
   S S S S S S S S T T S S S S S S S   S S S S S S S S T T S S  S  S  S S  S
e|-----------------------------------|---------------------------------------|
B|-0h1-------1-----0h1p0-------0-----|-0h1-------1-----0h1p0----------0------|
G|-----0-------0---------0-------0---|-----0-------0---------0----------0----|
D|-------0-----------------0---------|-------0------------------0------------|
A|-0-------0-----0-----------0-----0-|-0-------0-----0-------------0-------0-|
E|-----------------------------------|---------------------------------------|

 | H.                        Q         H               E     S  S  E.      S
e|-0-------------------------0-------|-3---------------3---------------------|
B|-1-------------------------1-------|-1---------------1---------------------|
G|-0-------------------------0-------|-0---------------0---------------------|
D|-2-------------------------2-------|-2---------------2---------------------|
A|-0-------------------------0-------|-0---------------0----------12------\3-|
E|-----------------------------------|-------------------------12-12------\3-|


[Choruses 2,3]

   $
   Gtr VI
    ~~~~~~~~~~~~~~~~~~~~~~~~~~~~~~~~~~~~~~~~~~~~~~~~~~~~~~~~
   +W                             +W
e|------------------------------|--------------------------|
B|-(8)--------------------------|-(8)----------------------|
G|------------------------------|--------------------------|
D|------------------------------|--------------------------|
A|------------------------------|--------------------------|
E|------------------------------|--------------------------|

 | Gtr IV
 |  E. S E  S S  S  S E S S S S    Q   E. S S S E S E.
e|------------------------------|--------------------------|
B|--6--6-6--6-6--6--6-6-6-------|--------------------------|
G|--5--5-5--5-5--5--5-5-5-------|--5---5--5-5-5-5-5--------|
D|--3--3-3--3-3--3--3-3-3-0-0-0-|--5---5--3-5-5-5-5-5------|
A|--3--3-3--3-3--3--3-3-3-0-0-0-|--3---3--3-3-3-3-3-5------|
E|--3--3-3--3-3--3--3-3-3-------|-------------------5------|

 | Gtr V
 |  Q    E.   S +S  S E S S S S    Q   E. S S S E S S  S S
e|------------------------------|--------------------------|
B|--6----6----6-(6)-6-6-6-6-6-6-|--------------------------|
G|--5----5----5-(5)-5-5-5-5-5-5-|--5---5--5-5-5-5-5--------|
D|--3----3----3-(3)-3-3-3-3-3-3-|--5---5--5-5-5-5-5-3--3-3-|
A|--3----3----3-(3)-3-3-3-3-3-3-|--3---3--3-3-3-3-3-3--3-3-|
E|--3----3----3-(3)-3-3-3-3-3-3-|-------------------3--3-3-|

    >
  ~~~~~
   +W
e|----------------------------------||
B|-(8)------------------------------||
G|----------------------------------||
D|----------------------------------||
A|----------------------------------||
E|----------------------------------||

 |  Q    E   E +S  S E   S S E
e|----------------------------------||
B|----------------------------------||
G|--4----4---4-(4)-4-4---4-4--------||
D|--2----2---2-(2)-2-2---2-2-2/-----||
A|--2----2---2-(2)-2-2---2-2-2/-----||
E|--2----2---2-(2)-2-2---2-2--------||

 |  E. S S S E +E    S S E   S  S
e|----------------------------------||
B|--5--5-5-5-5-(5)---5-5-5---5------||
G|--4--4-4-4-4-(4)---4-4-4---4------||
D|--2--2-2-2-2-(2)---2-2-2---2--2/--||
A|--2--2-2-2-2-(2)---2-2-2---2--2/--||
E|--2--2-2-2-2-(2)---2-2-2---2------||


    ~~~                          ~~~~~~~~~~~~~~~~~~~~~~~~
   +H.             Q            +W
e|----------------------------|-------------------------|
B|-(8)-------------8b10r======|=(8)---------------------|
G|----------------------------|-------------------------|
D|----------------------------|-------------------------|
A|----------------------------|-------------------------|
E|----------------------------|-------------------------|

 |  Q   Q  +S  S E S    S S S    Q   E. S S S E S S S S
e|----------------------------|-------------------------|
B|----------------------------|-------------------------|
G|--7---7--(7)-7-7-7----5-5---|-----------------------0-|
D|--7---7--(7)-7-7-7----5-5---|--3---3--3-3-3-3-3-3-3-0-|
A|--5---5--(5)-5-5-5----3-3-0-|--3---3--3-3-3-3-3-3-3---|
E|--------------------------0-|--3---3--3-3-3-3-3-3-3---|

 |  Q   Q  +S  S E S    S S S    Q   E. S S S E S S S S
e|----------------------------|-------------------------|
B|----------------------------|-------------------------|
G|--7---7--(7)-7-7-7----7-7---|---------------5-5-5-0-0-|
D|--7---7--(7)-7-7-7----7-7---|--3---3--3-3-3-3-3-3-0-0-|
A|--5---5--(5)-5-5-5----5-5-0-|--3---3--3-3-3-3-3-3-0-0-|
E|--0---0--(0)-0-0-0----0-0-0-|--3---3--3-3-3-3-3-3-----|


[Coda]

    >
  ~~~~~~~~~~~~~~~~~~~~~~~~~~~~~~~~
   +W                         +W
e|--------------------------|---------------------------------|
B|-(8)----------------------|-(8)-----------------------------|
G|--------------------------|---------------------------------|
D|--------------------------|---------------------------------|
A|--------------------------|---------------------------------|
E|--------------------------|---------------------------------|

 |  Q   E. S  S  S E S E.      E. S S S E +E    S S E S S
e|--------------------------|---------------------------------|
B|--------------------------|-----5-5-5-5-(5)---5-5-5---------|
G|--5---5--5--5--5-5-5------|-----4-4-4-4-(4)---4-4-4---------|
D|--5---5--5--5--5-5-5-3----|--2--2-2-2-2-(2)---2-2-2-2-2/----|
A|--3---3--3--3--3-3-3-3----|--2--2-2-2-2-(2)---2-2-2-2-2/----|
E|---------------------3----|--2--2-2-2-2-(2)---2-2-2---------|
|
 |  Q   E. S +S  S E S E  S    E. S S S E +S  S E   E S S
e|--------------------------|---------------------------------|
B|--------------------------|-----------5-(5)-5-5---5---------|
G|--5---5--5-(5)-5-5-5------|--4--4-4-4-4-(4)-4-4---4---------|
D|--5---5--5-(5)-5-5-5-3--3-|--2--2-2-2-2-(2)-2-2---2-2-2-----|
A|--3---3--3-(3)-3-3-3-3--3-|--2--2-2-2-2-(2)-2-2---2-2-2-----|
E|---------------------3--3-|--2--2-2-2-2-(2)-2-2---2---------|


[Interlude]

   D5               Csus2
   Gtr I
   W                S S S S S S S S S S S S  S  S T T S
e|---------------||-------------------------------------|
B|---------------||-0h1-------1-----1h3---1-------0h1p0-|
G|---------------||-----0-------0------------0----------|
D|---------------||-------0-----------------------------|
A|---------------||-3-------3-----3-----3-------3-------|
E|---------------||-------------------------------------|

 | Gtr IV
 |                  >
 | H.      +E  E    H.                      +Q
e|---------------||-------------------------------------|
B|---------------||-------------------------------------|
G|-7-------(7)-7\||-------------------------------------|
D|-7-------(7)-7\||-5-----------------------(5)---------|
A|-5-------(5)-5\||-------------------------------------|
E|---------------||-------------------------------------|
 | Gtr V
 | H.      +E  E    W
e|---------------||-------------------------------------|
B|---------------||-------------------------------------|
G|-7-------(7)-7-||-------------------------------------|
D|-7-------(7)-7S||=5-----------------------------------|
A|-5-------(5)-5S||=3-----------------------------------|
E|---------------||-------------------------------------|


   Gsus4/B
    S  S S S S S S S E S S S S T T S
e|------------------------------------|
B|--0h=1-------1-----3---1-----0h1p0--|
G|-------0-------0---0-----0----------|
D|---------0--------------------------|
A|--2--------2-----2---2-----2--------|
E|------------------------------------|

 |  ~~~
 | +W
e|------------------------------------|
B|------------------------------------|
G|------------------------------------|
D|-(5)--------------------------------|
A|------------------------------------|
E|------------------------------------|

 |  H.                     Q
e|------------------------------------|
B|------------------------------------|
G|------------------------------------|
D|--5---------------------------------|
A|--2---------------------------------|
E|------------------------------------|


   S S S S S S S S T T S S S S S S S   S S S S S S S S T T S S S S S S S
e|-----------------------------------|-----------------------------------|
B|-0h1-------1-----0h1p0-------0-----|-0h1-------1-----0h1p0-------0-----|
G|-----0-------0---------0-------0---|-----0-------0---------0-------0---|
D|-------0-----------------0---------|-------0-----------------0---------|
A|-0-------0-----0-----------0-----0-|-0-------0-----0-----------0-----0-|
E|-----------------------------------|-----------------------------------|

 | W                                   W
e|-----------------------------------|-----------------------------------|
B|-----------------------------------|-----------------------------------|
G|-----------------------------------|-2---------------------------------|
D|-----------------------------------|-----------------------------------|
A|-0---------------------------------|-----------------------------------|
E|-----------------------------------|-----------------------------------|


   Csus2                               Gsus4/B
   Gtr I
   S S S S S S S S S S S S S S T T S   S S S S S S S S E S S S S T T S
e|-----------------------------------|----------------------------------|
B|-0h1-------1-----1h3---1-----0h1p0-|-0h1-------1-----3---1-----0h1p0--|
G|-----0-------0-----------0---------|-----0-------0---0-----0----------|
D|-------0---------------------------|-------0--------------------------|
A|-3-------3-----3-----3-----3-------|-2-------2-----2---2-----2--------|
E|-----------------------------------|----------------------------------|

 | W                                   H               Q     S S E
e|-----------------------------------|----------------------------------|
B|-----------------------------------|----------------------------------|
G|-----------------------------------|----------------------------------|
D|-----------------------------------|-------------------------5s7------|
A|-----------------------------------|----------------------------------|
E|-----------------------------------|----------------------------------|


   Am11
   S S S S S S S S T T S S S  S  S S S
e|-------------------------------------|
B|-0h1-------1-----0h1p0---------0-----|
G|-----0-------0---------0---------0---|
D|-------0-----------------0-----------|
A|-0-------0-----0------------0------0-|
E|-------------------------------------|

 | ~~~~~~~~~~~~~~~~~~~~~~~~~~~~~~~~~~~~~
 | H.                        +Q
e|-------------------------------------|
B|-------------------------------------|
G|-------------------------------------|
D|-7-------------------------(7)-------|
A|-------------------------------------|
E|-------------------------------------|


    S  S S S S S S S T T S S S  S  S  S S
e|----------------------------------------||
B|--0h=1-------1-----0h1p0---------0------||
G|-------0-------0---------0----------0---||
D|---------0-----------------0------------||
A|--0--------0-----0------------0-------0-||
E|----------------------------------------||

 |                             Gtr IV
 |~~~~~
 | +H.                          S  E.
e|----------------------------------------||
B|----------------------------------------||
G|----------------------------------------||
D|-(7)------------------------------------||
A|----------------------------------------||
E|-----------------------------12-12------||


[Guitar Solo]

   C5              N.C.            G/B
   Gtr VI
                    ~~~~           ~             ~~~~~~
   H       S S S S  E       S  S   H       S S S S +S  E   S
e|-------------------------------|---------------------------|
B|---------------5--6-------5--6-|-5-----------5-6-(6)-5---6-|
G|-----------5-7-----------------|---------5-7---------------|
D|-------------------------------|---------------------------|
A|-------------------------------|---------------------------|
E|-------------------------------|---------------------------|

 | Gtrs IV, V
 | Q  E. S S S S S  S   S   E      Q  E. S S S E    S  S S S
e|-------------------------------|---------------------------|
B|-------------------------------|---------------------------|
G|-5--5--5-5-5-5----5S==7S==5----|---------------------------|
D|-5--5--5-5-5-5---(5)S(7)S(5)---|-5--5--5-5-5-5----5--5-0-0-|
A|-3--3--3-3-3-3-0--3S==5S==3----|-2--2--2-2-2-2----2--2-0-0-|
E|-------------------------------|---------------------------|


   Bb5
                   ~~~~~~~~
   H         S S S S   +S  E   S
e|--------------------------------|
B|-5-------------5-6b8-(6)-6---5--|
G|-----------5-7------------------|
D|--------------------------------|
A|--------------------------------|
E|--------------------------------|

 | E. S E. S E   E      S  S S S
e|--------------------------------|
B|--------------------------------|
G|-3--3-3--3-3---3------3--3-3----|
D|-3--3-3--3-3---3------3--3-3-3--|
A|-1--1-1--1-1---1------1--1-1-0--|
E|--------------------------------|


   A5
      ~   ~   ~~~~~~
   S  E S E S S +S  S E       +Q
e|--------------------------------------|
B|-6--5-6-5-6-5-(5)-6-8b10====(8)r======|
G|--------------------------------------|
D|--------------------------------------|
A|--------------------------------------|
E|--------------------------------------|

 | E.   S E E    S  S S     S  S  S S S
e|--------------------------------------|
B|--------------------------------------|
G|-2----2-2-2----2--2-2-----2--2--2-----|
D|-2----2-2-2----2--2-2-----2--2--2-0-0-|
A|-0----0-0-0----0--0-0-----0--0--0-0-0-|
E|--------------------------------------|


[Bridge]

     C                             G/B
      ~~~                          ~             ~~~~~~
     +H        +S  S S S E   S S   H       S S S S +S  E   S
e||------------------------------|----------------------------|
B||o-(8)-------(8)-----5-6---5-6-|-5-----------5-6-(6)-5---6--|
G||----------------5-7-----------|---------5-7----------------|
D||------------------------------|----------------------------|
A||o-----------------------------|----------------------------|
E||------------------------------|----------------------------|

 |    Q   E. S  S  S S S S S E     Q  E. S S S E    S  S S S
e||------------------------------|----------------------------|
B||o-----------------------------|----------------------------|
G||---5---5--5--5--5-5---5S7S5---|----------------------------|
D||------------------------------|-5--5--5-5-5-5----5--5-0-0--|
A||o--3---3--3--3--3-3-0-3S5S3---|-2--2--2-2-2-2----2--2-0-0--|
E||------------------------------|----------------------------|


                                                            D.S. al Coda
   Bb5                             A5
                   ~~~~~~~~           ~   ~   ~~~~~~
   H         S S S S   +S  E   S   S  E S E S S +S  S E       +Q
e|-------------------------------|----------------------------------------||
B|-5-------------5-6b8-(6)-6---5-|-6--5-6-5-6-5-(5)-6-8b10====(8)r=======o||
G|-----------5-7-----------------|----------------------------------------||
D|-------------------------------|----------------------------------------||
A|-------------------------------|---------------------------------------o||
E|-------------------------------|----------------------------------------||

 | E. S E. S E   E      S  S S S   E.   S E E    S  S S     S  S  S S S
e|-------------------------------|----------------------------------------||
B|-------------------------------|---------------------------------------o||
G|-3--3-3--3-3---3------3--3-3---|-2----2-2-2----2--2-2-----2--2--2-------||
D|-3--3-3--3-3---3------3--3-3-3-|-2----2-2-2----2--2-2-----2--2--2-0-0---||
A|-1--1-1--1-1---1------1--1-1-0-|-0----0-0-0----0--0-0-----0--0--0-0-0--o||
E|-------------------------------|----------------------------------------||


[Outro]

                            Csus2
   Gtr I
    W                       S S S S S S S S  S  S S S S S T T S
e|-----------------------||-------------------------------------|
B|-----------------------||-0h1-------1------1h=3---1-----0h1p0-|
G|-----------------------||-----0-------0-------------0---------|
D|-----------------------||-------0-----------------------------|
A|-----------------------||-3-------3-----3-------3-----3-------|
E|-----------------------||-------------------------------------|

 | +W                       W
e|-----------------------||-------------------------------------|
B|-(8)-------------------||-8-----------------------------------|
G|-----------------------||-------------------------------------|
D|-----------------------||-------------------------------------|
A|-----------------------||-------------------------------------|
E|-----------------------||-------------------------------------|

 | Gtrs IV, V
 |  E  S S S S E +Q.   E    Q.          E   +H
e|-----------------------||-------------------------------------|
B|-----------------------||-------------------------------------|
G|--7--7-7-7-7-7-(7)---7-||-------------------------------------|
D|--7--7-7-7-7-7-(7)---7S||=5-----------5---(5)-----------------|
A|--5--5-7-5-5-5-(5)---5S||=3-----------3---(3)-----------------|
E|-----------------------||-------------------------------------|


   Gsus4/B
    S  S S S S S S S E S S S S T T S
e|-------------------------------------|
B|--0h=1-------1-----3---1-----0h1p0---|
G|-------0-------0---0-----0-----------|
D|---------0---------------------------|
A|--2--------2-----2---2-----2---------|
E|-------------------------------------|

 | +W
e|-------------------------------------|
B|-(8)---------------------------------|
G|-------------------------------------|
D|-------------------------------------|
A|-------------------------------------|
E|-------------------------------------|

 |  W
e|-------------------------------------|
B|-------------------------------------|
G|-------------------------------------|
D|--5----------------------------------|
A|--2----------------------------------|
E|-------------------------------------|


   Am7
   S S S S  S  S S S  T  T S S  S S S S S
e|----------------------------------------|
B|-0h1---------1------0h=1p0--------0-----|
G|-----0---------0-----------0--------0---|
D|-------0----------------------0---------|
A|-0--------0------0--------------0-----0-|
E|----------------------------------------|

                          ~~
 | Q       +Q        +E      Q.
e|----------------------------------------|
B|-8-------(8)-------(8)-----8------------|
G|----------------------------------------|
D|----------------------------------------|
A|----------------------------------------|
E|----------------------------------------|

 | W
e|----------------------------------------|
B|----------------------------------------|
G|----------------------------------------|
D|----------------------------------------|
A|-0--------------------------------------|
E|----------------------------------------|


    S  S S S S S S S  T  T S  S S  S  S S S
e|------------------------------------------|
B|--0h=1-------1------0h=1p0----------0-----|
G|-------0-------0------------0---------0---|
D|---------0--------------------0-----------|
A|--0--------0-----0---------------0------0-|
E|------------------------------------------|

 |  >
 | +W
e|------------------------------------------|
B|-(8)--------------------------------------|
G|------------------------------------------|
D|------------------------------------------|
A|------------------------------------------|
E|------------------------------------------|

 | +H                +S    E.     +Q
e|------------------------------------------|
B|------------------------------------------|
G|-------------------------2------(2)-------|
D|------------------------------------------|
A|-(0)---------------(0)--------------------|
E|------------------------------------------|


   Csus2                                 Gsus4/B
   S S S S S S S S  S  S S S S S T T S   S S S S S S S S E S S S S T T S
e|-------------------------------------|----------------------------------|
B|-0h1-------1------1h=3---1-----0h1p0-|-0h1-------1-----3---1-----0h1p0--|
G|-----0-------0-------------0---------|-----0-------0---0-----0----------|
D|-------0-----------------------------|-------0--------------------------|
A|-3-------3-----3-------3-----3-------|-2-------2-----2---2-----2--------|
E|-------------------------------------|----------------------------------|
 
 | Gtr IV
 | H               +H                    W
e|-------------------------------------|----------------------------------|
B|-------------------------------------|----------------------------------|
G|-------------------------------------|----------------------------------|
D|-------------------------------------|-5--------------------------------|
A|-3---------------(3)-----------------|-2--------------------------------|
E|-------------------------------------|----------------------------------|


   S S S S S S S S T T S S S S S S S
e|-----------------------------------|
B|-0h1-------1-----0h1p0-------0-----|
G|-----0-------0---------0-------0---|
D|-------0-----------------0---------|
A|-0-------0-----0-----------0-----0-|
E|-----------------------------------|

 | W
e|-----------------------------------|
B|-----------------------------------|
G|-----------------------------------|
D|-----------------------------------|
A|-0---------------------------------|
E|-----------------------------------|


                                 H.=H
   S S S S S S  S  S  T  T S S S  S  S S S    W
e|-----------------------------------------|--------*|
B|-0h1-------1--------0h=1p0---------0-----|--1-----*|
G|-----0--------0------------0---------0---|--0-----*|
D|-------0---------------------0-----------|--3-----*|
A|-0-------0-------0--------------0------0-|--3-----*|
E|-----------------------------------------|--------*|

   Q.          +E    +Q          +Q          +W
e|-----------------------------------------|--------*|
B|-----------------------------------------|--------*|
G|-----------------------------------------|--------*|
D|-----------------------------------------|--------*|
A|-0-----------(0)---(0)---------(0)-------|-(0)----*|
E|-----------------------------------------|--------*|


Duration Legend
---------------
W - whole; H - half; Q - quarter; E - 8th; S - 16th; T - 32nd; X - 64th; a - acciaccatura
+ - note tied to previous; . - note dotted; .. - note double dotted
Uncapitalized letters represent notes that are staccato (1/2 duration)
Irregular groupings are notated above the duration line
Duration letters will always appear directly above the note/fret number it represents the
duration for.  Duration letters with no fret number below them represent rests.  Multi-
bar rests are notated in the form Wxn, where n is the number of bars to rest for.  Low
melody durations appear below the staff

Tablature Legend
----------------
 h   - hammer-on
 p   - pull-off
 b   - bend
 pb  - pre-bend
 r   - bend release (if no number after the r, then release immediately)
 /\  - slide into or out of (from/to "nowhere")
 s   - legato slide
 S   - shift slide
  - natural harmonic
[n]  - artificial harmonic
n(n) - tapped harmonic
 ~   - vibrato
 tr  - trill
 T   - tap
 TP  - trem. picking
 PM  - palm muting
\n/  - tremolo bar dip; n = amount to dip
 \n  - tremolo bar down
 n/  - tremolo bar up
/n\  - tremolo bar inverted dip
 =   - hold bend; also acts as connecting device for hammers/pulls
 <>  - volume swell (louder/softer)
 x   - on rhythm slash represents muted slash
 o   - on rhythm slash represents single note slash

Misc Legend
-----------
 |  - bar
||  - double bar
||o - repeat start
o|| - repeat end
*|  - double bar (ending)
 :  - bar (freetime)
 $  - Segno
 &  - Coda
Tempo markers -  = BPM(8/16=s8/s16), where s8 = swing 8ths, s16 = swing 16ths


***************************************************************************************
* Generated using Power Tab Editor by Brad Larsen - http://powertab.guitarnetwork.org *
***************************************************************************************
Suggest correction
comments
print report bad tab
12 comments total. Showing first comments.
0 reply
Losergoth 10 Jul 21, 2005 08:00 PM

Good job! This tab is accurate.

+4 reply
WeeGit 50 Aug 03, 2005 08:00 PM

Dude, this is ripped straight from powertabs.

+2 reply
joao_88 20 Mar 02, 2006 12:11 PM

who cares weegit, it's a god tab m8...

guest
You may want to rate the tab now too:
select rating
Wanna post a correction for this tab? Suggest correction