Oops, an error
Loading. Please wait.

All The Faces Tab

version 1
version 1

Whole song

38,218 views 168 this week
5 commentsread comments
1 2 3 4 5
excellent!
x 25
add to favorites
launch autoscroll
font size
0
reset
how to read this tab
guitar tuner
Autoscroll
slow
fast
+/-
esc
set tempo
stop
Help us to improve Ultimate-Guitar.com Take our survey!
×
Contributor
All The Faces - Creed Bratton
Tabbed by thisiisdaniel

I heard this on The Office Finale as I'm sure most of you who find this did. As of
5/17/13 this tab is incomplete


[Intro]

e|--------2--------------|--------2--------------|--------3----------------|--------------|
B|--3-----------3-----3--|--3-----------3-----3--|--0-----------0h1-----0--|--3--5/7--10--|
G|-----2-----2-----2-----|-----4-----4-----4-----|-----0-----0-------0-----|--------------|
D|--0--------------------|-----------------------|-------------------------|--0--0----0---|
A|--------------4-----0--|--2-----------2-----0--|-------------------------|--------------|
E|-----------------------|-----------------------|--3-----------3-------3--|--------------|

e|--------3--0------------|--------2--0--------------|--------0-------------0--------2h3--2--|
B|--3---------------3-----|--0-----------0-----3-----|--0-----------0-------0-----3----------|
G|-----2--------2------2--|-----1-----------1-----1--|-----1-----1-------0-----0-------------|
D|--0-----0---------0-----|--------------------------|----------------------------0----------|
A|------------------------|--2-----1-----------2-----|--2-------------------2----------------|
E|------------------------|--------------------------|--------------0h3----------------------|

e|--------2--------------|--------2--------------|--------3----------------|--------------|
B|--3-----------3-----3--|--3-----------3-----3--|--0-----------0h1-----0--|--3--5/7--10--|
G|-----2-----2-----2-----|-----4-----4-----4-----|-----0-----0-------0-----|--------------|
D|--0--------------------|-----------------------|-------------------------|--0--0----0---|
A|--------------4-----0--|--2-----------2-----0--|-------------------------|--------------|
E|-----------------------|-----------------------|--3-----------3-------3--|--------------|

e|--------3--0------------|--------2--0--------------|--------0-------------0--------2h3--2--|
B|--3---------------3-----|--0-----------0-----3-----|--0-----------0-------0-----3----------|
G|-----2--------2------2--|-----1-----------1-----1--|-----1-----1-------0-----0-------------|
D|--0-----0---------0-----|--------------------------|----------------------------0----------|
A|------------------------|--2-----1-----------2-----|--2-------------------2----------------|
E|------------------------|--------------------------|--------------0h3----------------------|


[Verse]

e|--------2--------------|--------2--------------|--------3----------------|--------2-----2h3--2--|
B|--3-----------3-----3--|--3-----------3-----3--|--0-----------0-------0--|--3-------------------|
G|-----2-----2-----2-----|-----4-----4-----4-----|-----0-----0-------0-----|-----2-----2----------|
D|--0--------------------|-----------------------|-------------------------|--0-------------------|
A|--------------4-----0--|--2-----------2-----0--|-------------------------|----------------------|
E|-----------------------|-----------------------|--3-----------3-------3--|----------------------|

e|--------2--------------|--------2-----0-----------|--------0h2-------------------2h3--2--|
B|--3-----------3-----3--|--0-----------------3-----|--0----------2-----2h3--3-------------|
G|-----2-----2-----2-----|-----1-----1-----1-----1--|-----1----------0----------2----------|
D|--0--------------------|--------------------------|------------------------0-------------|
A|--------------4-----0--|--2-----------2-----2-----|--2----------0------------------------|
E|-----------------------|--------------------------|--------------------------------------|

e|--------2--------------|--------2--------------|--------3----------------|--------2-----2h3--2--|
B|--3-----------3-----3--|--3-----------3-----3--|--0-----------0-------0--|--3-------------------|
G|-----2-----2-----2-----|-----4-----4-----4-----|-----0-----0-------0-----|-----2-----2----------|
D|--0--------------------|-----------------------|-------------------------|--0-------------------|
A|--------------4-----0--|--2-----------2-----0--|-------------------------|----------------------|
E|-----------------------|-----------------------|--3-----------3-------3--|----------------------|

e|--------2--------------|--------2-----0-----------|--------0h2-------------------2----------------|
B|--3-----------3-----3--|--0-----------------3-----|--0----------2-----2h3--3-----------3-----3----|
G|-----2-----2-----2-----|-----1-----1-----1-----1--|-----1----------0----------2-----2-----2----2--|
D|--0--------------------|--------------------------|------------------------0-----------0-----0----|
A|--------------4-----0--|--2-----------2-----2-----|--2----------0---------------------------------|
E|-----------------------|--------------------------|-----------------------------------------------|


[Chorus]

e|-----------2-----3--------2--------2--------|-----------2-----3--------2--------2-----------------|
B|--3-----3-----3--------0--------2--------3--|--3-----3-----3--------0--------2--------3--3-----3--|
G|-----2--------------0--------0--------2-----|-----2--------------0--------0--------2--------2-----|
D|--0-----0--0-----------------------0--------|--0-----0--0-----------------------0--------0--------|
A|--------------------------0-----------------|--------------------------0--------------------------|
E|-----------------3--------------------------|-----------------3-----------------------------------|

************************************

| h  Hammer-on
| /  Slide up

************************************
comments
print report bad tab
5 comments total. Showing first comments.
+5 reply
cvbn051 73 wrote on May 26 2013, 02:15 pm

E|--------2--------------|--------2--------------|--------3----------------|--------------|
B|--3-----------3-----3--|--3-----------3-----3--|--0-----------0h1-----0--|--3--5/7--10--|
G|-----2-----2-----2-----|-----4-----4-----4-----|-----0-----0-------0-----|--------------|
D|--0--------------------|-----------------------|-------------------------|--0--0----0---|
A|--------------4-----0--|--2-----------2-----0--|-------------------------|--------------|
E|-----------------------|-----------------------|--3-----------3-------3--|--------------|

E|--------3--0------------|--------2--0--------------|--------0-------------0--------2h3--2--|
B|--3---------------3-----|--0-----------0-----3-----|--0-----------0-------0-----3----------|
G|-----2--------2------2--|-----1-----------1-----1--|-----1-----1-------0-----0-------------|
D|--0-----0---------0-----|--------------------------|----------------------------0----------|
A|------------------------|--2-----1-----------2-----|--2-------------------2----------------|
E|------------------------|--------------------------|--------------0h3----------------------|

Verse 1
E|--------2--------------|--------2--------------|--------3----------------|--------2-----2h3--2--|
B|--3-----------3-----3--|--3-----------3-----3--|--0-----------0-------0--|--3-------------------|
G|-----2-----2-----2-----|-----4-----4-----4-----|-----0-----0-------0-----|-----2-----2----------|
D|--0--------------------|-----------------------|-------------------------|--0-------------------|
A|--------------4-----0--|--2-----------2-----0--|-------------------------|----------------------|
E|-----------------------|-----------------------|--3-----------3-------3--|----------------------|
[ Tab from: http://www.guitaretab.com/c/creed-bratton/355218.html ]
E|--------2--------------|--------2-----0-----------|--------0h2-------------------2h3--2--|
B|--3-----------3-----3--|--0-----------------3-----|--0----------2-----2h3--3-------------|
G|-----2-----2-----2-----|-----1-----1-----1-----1--|-----1----------0----------2----------|
D|--0--------------------|--------------------------|------------------------0-------------|
A|--------------4-----0--|--2-----------2-----2-----|--2----------0------------------------|
E|-----------------------|--------------------------|--------------------------------------|

E|--------2--------------|--------2--------------|--------3----------------|--------2-----2h3--2--|
B|--3-----------3-----3--|--3-----------3-----3--|--0-----------0-------0--|--3-------------------|
G|-----2-----2-----2-----|-----4-----4-----4-----|-----0-----0-------0-----|-----2-----2----------|
D|--0--------------------|-----------------------|-------------------------|--0-------------------|
A|--------------4-----0--|--2-----------2-----0--|-------------------------|----------------------|
E|-----------------------|-----------------------|--3-----------3-------3--|----------------------|

E|--------2--------------|--------2-----0-----------|--------0h2-------------------2----------------|
B|--3-----------3-----3--|--0-----------------3-----|--0----------2-----2h3--3-----------3-----3----|
G|-----2-----2-----2-----|-----1-----1-----1-----1--|-----1----------0----------2-----2-----2----2--|
D|--0--------------------|--------------------------|------------------------0-----------0-----0----|
A|--------------4-----0--|--2-----------2-----2-----|--2----------0---------------------------------|
E|-----------------------|--------------------------|-----------------------------------------------|

Chorus

-----------2-----3--------2--------2--------|-----------2-----3--------2--------2-----------------|
--3-----3-----3--------0--------2--------3--|--3-----3-----3--------0--------2--------3--3-----3--|
-----2--------------0--------0--------2-----|-----2--------------0--------0--------2--------2-----|
--0-----0--0-----------------------0--------|--0-----0--0-----------------------0--------0--------|
--------------------------0-----------------|--------------------------0--------------------------|
-----------------3--------------------------|-----------------3-----------------------------------|

0 reply
thisiisdaniel 84 wrote on May 26 2013, 07:46 pm

I deleted the verses and the chorus to revise it. How did this tab get posted to another site so fast

+1 reply
abc123lkj 12 wrote on June 8 2013, 11:43 am

thanks for the "all the faces" tab thisisdaniel, do you think you will add the riff at the end anytime?

I want to post or [tab]
guest
You may want to rate the tab now too:
select rating
Please do not post tabs as comments. Select "correction" instead!