Oops, an error
Loading. Please wait.

Bad Moon Rising Bass Tab

version 2
version 2

Whole song

31,014 views 57 this week
no commentswrite comment
1 2 3 4 5
x 17
add to favorites
launch autoscroll
font size
0
reset
guitar tuner
Autoscroll
slow
fast
+/-
esc
set tempo
stop
Help us to improve Ultimate-Guitar.com Take our survey!
×
Author
Difficulty
novice
Creedence Clearwater Revival - Bad Moon Rising
Album: Green River (1969)
Written by: John C. Fogerty
Bassist: Stu Cook


[Intro]

G|-----------------|-----------------|
D|-----------------|-----------------|
A|-----------------|-5---5---5---5---|
E|-----------------|-----------------|


[Verse 1]

G|-----------------|-----------------|
D|-----------------|-----------------|
A|-5---5-----------|-5---5---5---5---|
E|---------5---3---|-----------------|(4x)


[Chorus]

G|-----------------|-----------------|-----------------|-----------------|
D|-----------------|-----------------|-----------------|-----------------|
A|-----------------|-5---5---5---5---|-----------------|-5---5---5---5---|
E|-3---3---3---3---|-----------------|-5---5---3---3---|-----------------|


[Verse 2]

G|-----------------|-----------------|
D|-----------------|-----------------|
A|-5---5-----------|-5---5---5---5---|
E|---------5---3---|-----------------|(3x)

G|-----------------|-----------------|
D|-----------------|-----------------|
A|-5---5-----------|-5---5---5---5---|
E|---------5---3---|---------------5-|


[Chorus]

G|-----------------|-----------------|-----------------|-----------------|
D|-----------------|-----------------|-----------------|-----------------|
A|-----------------|-5---5---5---5---|-----------------|-5---5---5---2-4-|
E|-3---3---3---3---|-----------------|-5---5---3---3---|-----------5-----|


[Solo]

G|-----------------|-----------------|-----------------|-----------------|
D|-----------------|-----------------|-----------------|-------------2-4-|
A|-5---5-----------|-5-------5---2-4-|-5---5-----------|-5-------5-5-----|
E|---------5---3---|-----5-----5-----|---------5---3---|-----5-----------|

G|-----------------|-----------------|-----------------|-----------------|
D|-5-------5-----5-|-----------------|-----------------|-----------------|
A|-----5-------5---|-5-------5-----5-|-----------------|-5-------5-------|
E|-----------------|-----5-------5---|-5---5---3---3---|-----5-------5---|


[Verse 3]

G|-----------------|-----------------| 
D|-----------------|-----------------|
A|-5---5-----------|-5---5---5---5---|
E|---------5---3---|-----------------|(3x)

G|-----------------|-----------------|
D|-----------------|-----------------|
A|-5---5-----------|-5---5---5---5---|
E|---------5---3---|---------------5-|


[Chorus]

G|-----------------|-----------------|-----------------|-----------------|
D|-----------------|-----------------|-----------------|-------------2-4-|
A|-----------------|-5---5---5---5---|-----------------|-5---5---5-5-----|
E|-3---3---3---3---|-----------------|-5---5---3---3---|-----------------|


[Final Chorus/Outro]

G|-----------------|-----------------|-----------------|-----------------|
D|-5---5---5---5---|-----------------|-----------------|-----------------|
A|-----------------|-5---5---5---5---|-----------------|-5---5---5-------|
E|-----------------|-----------------|-5---5---3---3---|-----------------|
Suggest correction
comments
print report bad tab
guest
You may want to rate the tab now too:
select rating
Wanna post a correction for this tab? Suggest correction