Oops, an error
Loading. Please wait.

Bad Moon Rising Bass Tab

version 2
version 2

Whole song

28,425 views 81 this week
no commentswrite comment
1 2 3 4 5
excellent!
x 15
add to favorites
launch autoscroll
font size
0
reset
guitar tuner
Tab Pro tools
  • play this tab
  • loop segment
  • change instrument
  • show fretboard
  • metronome
×
Best way to learn
"Bad Moon Rising"
Autoscroll
slow
fast
+/-
esc
set tempo
stop
Contributor
Difficulty
novice
Creedence Clearwater Revival - Bad Moon Rising
Album: Green River (1969)
Written by: John C. Fogerty
Bassist: Stu Cook
_______________________________________________

Intro:
G-----------------|-----------------|
D-----------------|-----------------|
A-----------------|-5---5---5---5---|
E-----------------|-----------------|

Verse 1:
G-----------------|-----------------| (4x)
D-----------------|-----------------|
A-5---5-----------|-5---5---5---5---|
E---------5---3---|-----------------|

Chorus:
G-----------------|-----------------|-----------------|-----------------|
D-----------------|-----------------|-----------------|-----------------|
A-----------------|-5---5---5---5---|-----------------|-5---5---5---5---|
E-3---3---3---3---|-----------------|-5---5---3---3---|-----------------|

Verse 2:
G-----------------|-----------------| (3x)
D-----------------|-----------------|
A-5---5-----------|-5---5---5---5---|
E---------5---3---|-----------------|

G-----------------|-----------------|
D-----------------|-----------------|
A-5---5-----------|-5---5---5---5---|
E---------5---3---|---------------5-|

Chorus:
G-----------------|-----------------|-----------------|-----------------|
D-----------------|-----------------|-----------------|-----------------|
A-----------------|-5---5---5---5---|-----------------|-5---5---5---2-4-|
E-3---3---3---3---|-----------------|-5---5---3---3---|-----------5-----|

Solo:
G-----------------|-----------------|-----------------|-----------------|
D-----------------|-----------------|-----------------|-------------2-4-|
A-5---5-----------|-5-------5---2-4-|-5---5-----------|-5-------5-5-----|
E---------5---3---|-----5-----5-----|---------5---3---|-----5-----------|

G-----------------|-----------------|-----------------|-----------------|
D-5-------5-----5-|-----------------|-----------------|-----------------|
A-----5-------5---|-5-------5-----5-|-----------------|-5-------5-------|
E-----------------|-----5-------5---|-5---5---3---3---|-----5-------5---|

Verse 3:
G-----------------|-----------------| (3x)
D-----------------|-----------------|
A-5---5-----------|-5---5---5---5---|
E---------5---3---|-----------------|

G-----------------|-----------------|
D-----------------|-----------------|
A-5---5-----------|-5---5---5---5---|
E---------5---3---|---------------5-|

Chorus:
G-----------------|-----------------|-----------------|-----------------|
D-----------------|-----------------|-----------------|-------------2-4-|
A-----------------|-5---5---5---5---|-----------------|-5---5---5-5-----|
E-3---3---3---3---|-----------------|-5---5---3---3---|-----------------|

Final chorus/Outro:
G-----------------|-----------------|-----------------|-----------------|
D-5---5---5---5---|-----------------|-----------------|-----------------|
A-----------------|-5---5---5---5---|-----------------|-5---5---5-------|
E-----------------|-----------------|-5---5---3---3---|-----------------|

G-----------------|
D-----------------|
A-----------------|
E-----------------|
comments
print report bad tab
I want to post or [tab]
guest
You may want to rate the tab now too:
select rating
Please do not post tabs as comments. Select "correction" instead!