Oops, an error
Loading. Please wait.
We have an official Born On The Bayou tab made by UG professional guitarists. Check out the tab »
×
179,134 views 414 this week
11 commentsread comments
1 2 3 4 5
x 67
add to favorites
×
Save as Personal and add changes to this tab that will be seen only by you. Learn more ›
×
You can save this tab as Personal to edit and correct it or add notes. All changes will be seen only by you. Learn more »
launch autoscroll
font size
0
reset
how to read this tab
guitar tuner
backing track
0:00
0:00
edit
Autoscroll
slow
fast
+/-
esc
set tempo
stop
Author
Unregistered
[Chords]    
E7      x7675x
A       x7765x
D       x0777x

 [Intro]
             X4
e|-------||---------------------|---------------------||
B|-------||-----5--------5------|----5--------5-------||
G|-------||:------7--------7----|------7--------7----:||
D|-------||:--6--------6--------|--6--------6--------:||
A|--2/7--||---------------------|---------------------||
E|-------||---------------------|---------------------||

 [Verse]
  1 Now when I was...
  2 Standing on my...
e|--------------------|-------------------||
B|---5--5-5---5-5-5---|---5-5---7---5-----||
G|---7--7-7---7-7-7---|---7-7---7---6-----||
D|---6--6-6---6-6-6---|---6-6---7---7-----||
A|---7--7-7---7-7-7---|---7-7---0---7-----||
E|--------------------|-------------------||

  3 Mi pappa said son don´t let the man get you
e|--------------------|-------------------||
B|---5--5-5---5-5-5---|---5-5-5---5-5-5---||
G|---7--7-7---7-7-7---|---7-7-7---7-7-7---||
D|---6--6-6---6-6-6---|---6-6-6---6-6-6---||
A|---7--7-7---7-7-7---|---7-7-7---7-7-7---||
E|--------------------|-------------------||

  4 And do what he     done to me
e|-------------------|-------------------||
B|---5-5-5---5-5-5---|---5-5---7---5-----||
G|---7-7-7---7-7-7---|---7-7---7---6-----||
D|---6-6-6---6-6-6---|---6-6---7---7-----||
A|---7-7-7---7-7-7---|---7-7---0---7-----||
E|-------------------|-------------------||

e|-------------------|-------------------||
B|---5-5-5---5-5-5---|---5-5---5---5-----||
G|---7-7-7---7-7-7---|---7-7---7---7-----||
D|---6-6-6---6-6-6---|---6-6---6---6-----|| x2
A|---7-7-7---7-7-7---|---7-7---7---7-----||
E|-------------------|-------------------||

 [Verse]
  1 I can remember...
  2 Running through...
e|--------------------|-------------------||
B|---5--5-5---5-5-5---|---5-5---7---5-----||
G|---7--7-7---7-7-7---|---7-7---7---6-----||
D|---6--6-6---6-6-6---|---6-6---7---7-----||
A|---7--7-7---7-7-7---|---7-7---0---7-----||
E|--------------------|-------------------||

  3 And I can...
e|--------------------|-------------------||
B|---5--5-5---5-5-5---|---5-5-5---5-5-5---||
G|---7--7-7---7-7-7---|---7-7-7---7-7-7---||
D|---6--6-6---6-6-6---|---6-6-6---6-6-6---||
A|---7--7-7---7-7-7---|---7-7-7---7-7-7---||
E|--------------------|-------------------||

  4 Chasing down a...
e|-------------------|-------------------||
B|---5-5-5---5-5-5---|---5-5---7---5-----||
G|---7-7-7---7-7-7---|---7-7---7---6-----||
D|---6-6-6---6-6-6---|---6-6---7---7-----||
A|---7-7-7---7-7-7---|---7-7---0---7-----||
E|-------------------|-------------------||

  5 Chasing down a...
e|--------------------|-------------------||
B|---5--5-5---5-5-5---|---5-5---7---5-----||
G|---7--7-7---7-7-7---|---7-7---7---6-----||
D|---6--6-6---6-6-6---|---6-6---7---7-----||
A|---7--7-7---7-7-7---|---7-7---0---7-----||
E|--------------------|-------------------||

 [Chorus]
              Born on the Bayou
e|--------------------|-------------------||
B|---5--5-5---5-5-5---|---5-5---7---5-----||
G|---7--7-7---7-7-7---|---7-7---7---6-----||
D|---6--6-6---6-6-6---|---6-6---7---7-----||
A|---7--7-7---7-7-7---|---7-7---0---7-----||
E|--------------------|-------------------||

               Born on the Bayou all right
e|--------------------|-------------------||
B|---5--5-5---5-5-5---|---5-5---7---5-----||
G|---7--7-7---7-7-7---|---7-7---7---6-----||
D|---6--6-6---6-6-6---|---6-6---7---7-----||
A|---7--7-7---7-7-7---|---7-7---0---7-----||
E|--------------------|-------------------||

               Born on the Bayou
e|--------------------|-------------------||
B|---5--5-5---5-5-5---|---5-5---5---5-----||
G|---7--7-7---7-7-7---|---7-7---7---7-----||
D|---6--6-6---6-6-6---|---6-6---6---6-----||
A|---7--7-7---7-7-7---|---7-7---7---7-----||
E|--------------------|-------------------||

e|-------------------|-------------------||
B|---5-5-5---5-5-5---|---5-5---5---5-----||
G|---7-7-7---7-7-7---|---7-7---7---7-----||
D|---6-6-6---6-6-6---|---6-6---6---6-----||
A|---7-7-7---7-7-7---|---7-7---7---7-----||
E|-------------------|-------------------||

 [Solo 1]
e|--------------------|---------------------||
B|--------------------|---------------------||
G|--2~-------2-1-2-1--|--2-1-2-1-2-1-2-1----||
D|--------------------|------------------2--||
A|--------------------|---------------------||
E|--------------------|---------------------||

e|--------------------|-------0-----------0-||
B|--------------------|-----3-----------3---||
G|--1-2-1-2-1-----1-2-|-2/4-----2-1-2/4-----||
D|--------------2-----|---------------------||
A|--------------------|---------------------||
E|--------------------|---------------------||

e|--------------------|---------------------||
B|--------------------|---------------------||
G|--2-1-2-1-2-1-2-1-2-|-1-------------------||
D|--------------------|----2----2~----------||
A|--------------------|---------------------||
E|--------------------|---------------------||

 [Solo 2]
e|--2/4---4--4---2--4-|--2---2—-2/4---------||
B|--3/5---5--5---3--5-|--3---5—-3/5---------||
G|--------------------|---------------------||
D|--------------------|---------------------||
A|--------------------|---------------------||
E|--------------------|---------------------||

e|--2/4---4--4---2--5-|-4---2---4\2---------||
B|--3/5---5--5---3--5-|-5---3---5\3---------||
G|--------------------|---------------------||
D|--------------------|---------------------||
A|--------------------|---------------------||
E|--------------------|---------------------||

e|--2/4---4--4---2--4-|--2---2—-2/4---------||
B|--3/5---5--5---3--5-|--3---5—-3/5---------||
G|--------------------|---------------------||
D|--------------------|---------------------||
A|--------------------|---------------------||
E|--------------------|---------------------||

e|---2---2-----0--0---|--0----4--2--0-------||
B|---3---3-----2--2---|--0------------------||
G|--------------------|---------------------||
D|--------------------|---------------------||
A|--------------------|---------------------||
E|--------------------|---------------------||

e|---2---2-----0--0---|--0----4--2--0-----0-||
B|---3---3-----2--2---|--0-------------3----||
G|--------------------|---------------------||
D|--------------------|---------------------||
A|--------------------|---------------------||
E|--------------------|---------------------||

e|---2---2-----0--0---|--0------4--2--0-----||
B|---3---3-----2--2---|--0------------------||
G|--------------------|---------------------||
D|--------------------|---------------------||
A|--------------------|---------------------||
E|--------------------|---------------------||

e|--------------------|---------------------||
B|---3---3-----2--2---|---0-----------------||
G|---2---2-----2--2---|---1-----------------||
D|--------------------|---------------------||
A|--------------------|---------------------||
E|--------------------|---------------------||

 [Solo 3]
e|-----------------------|-----------------------||
B|-----------------------|-----------------------||
G|-----------------------|-----------------------||
D|-----------------------|-----------------------||
A|--7-------7------------|--------5---7--7---7---||
E|------5/7---0~---------|--5/7-7---7------7---0-||

e|-----------------------|-----------------------||
B|-----------------------|-----------------------||
G|-----------------------|-----------------------||
D|-----------------------|-----------------------||
A|--------5---7--7---7---|------7---7--7---7-----||
E|--5/7-7---7------7---0-|--7-7---7------7---0---||

 [Interlude]
             X2
e|-------||---------------------|---------------------||
B|-------||-----5--------5------|----5--------5-------||
G|-------||:------7--------7----|------7--------7----:||
D|-------||:--6--------6--------|--6--------6--------:||
A|--2/7--||---------------------|---------------------||
E|-------||---------------------|---------------------||

 [Verse]
  1 Wish I was...
  2 Rolling with...
e|--------------------|-------------------||
B|---5--5-5---5-5-5---|---5-5---7---5-----||
G|---7--7-7---7-7-7---|---7-7---7---6-----||
D|---6--6-6---6-6-6---|---6-6---7---7-----||
A|---7--7-7---7-7-7---|---7-7---0---7-----||
E|--------------------|-------------------||

  3 Wishing I were...
e|--------------------|-------------------||
B|---5--5-5---5-5-5---|---5-5-5---5-5-5---||
G|---7--7-7---7-7-7---|---7-7-7---7-7-7---||
D|---6--6-6---6-6-6---|---6-6-6---6-6-6---||
A|---7--7-7---7-7-7---|---7-7-7---7-7-7---||
E|--------------------|-------------------||

  4 Choogling on down...
e|-------------------|-------------------||
B|---5-5-5---5-5-5---|---5-5---7---5-----||
G|---7-7-7---7-7-7---|---7-7---7---6-----||
D|---6-6-6---6-6-6---|---6-6---7---7-----||
A|---7-7-7---7-7-7---|---7-7---0---7-----||
E|-------------------|-------------------||

 [Chorus]
              Born on the Bayou
e|--------------------|-------------------||
B|---5--5-5---5-5-5---|---5-5---7---5-----||
G|---7--7-7---7-7-7---|---7-7---7---6-----||
D|---6--6-6---6-6-6---|---6-6---7---7-----||
A|---7--7-7---7-7-7---|---7-7---0---7-----||
E|--------------------|-------------------||

               Born on the Bayou all right
e|--------------------|-------------------||
B|---5--5-5---5-5-5---|---5-5---7---5-----||
G|---7--7-7---7-7-7---|---7-7---7---6-----||
D|---6--6-6---6-6-6---|---6-6---7---7-----||
A|---7--7-7---7-7-7---|---7-7---0---7-----||
E|--------------------|-------------------||

               Born on the Bayou
e|--------------------|-------------------||
B|---5--5-5---5-5-5---|---5-5---5---5-----||
G|---7--7-7---7-7-7---|---7-7---7---7-----||
D|---6--6-6---6-6-6---|---6-6---6---6-----||
A|---7--7-7---7-7-7---|---7-7---7---7-----||
E|--------------------|-------------------||

e|-------------------|-------------------||
B|---5-5-5---5-5-5---|---5-5---5---5-----||
G|---7-7-7---7-7-7---|---7-7---7---7-----||
D|---6-6-6---6-6-6---|---6-6---6---6-----||
A|---7-7-7---7-7-7---|---7-7---7---7-----||
E|-------------------|-------------------||

 [Solo 3]
e|-----------------------|-----------------------||
B|-----------------------|-----------------------||
G|-----------------------|-----------------------||
D|-----------------------|-----------------------||
A|--7-------7------------|--------5---7--7---7---||
E|------5/7---0~---------|--5/7-7---7------7---0-||

e|-----------------------|-----------------------||
B|-----------------------|-----------------------||
G|-----------------------|-----------------------||
D|-----------------------|-----------------------||
A|--------5---7--7---7---|------7---7--7---7-----||
E|--5/7-7---7------7---0-|--7-7---7------7---0---||

 After the [solo]
e|----------------------|---------------------||
B|------------3-3--2-2--|-0~------------------||
G|------------2-2--2-2--|-1~------------------||
D|----------------------|---------------------||
A|-------7--------------|---------------------||
E|---7-7---7------------|---------------------||

e|--0~------------------|---------------------||
B|--0~------------------|---------------------||
G|----------------------|---------------------||
D|----------------------|---------------------||
A|----------------------|---------------------||
E|----------------------|---------------------||

 [Interlude]
             X4
e|-------||---------------------|---------------------||
B|-------||-----5--------5------|----5--------5-------||
G|-------||:------7--------7----|------7--------7----:||
D|-------||:--6--------6--------|--6--------6--------:||
A|--2/7--||---------------------|---------------------||
E|-------||---------------------|---------------------||

 [Verse]
  1 I can remember...
  2 Running through...
e|--------------------|-------------------||
B|---5--5-5---5-5-5---|---5-5---7---5-----||
G|---7--7-7---7-7-7---|---7-7---7---6-----||
D|---6--6-6---6-6-6---|---6-6---7---7-----||
A|---7--7-7---7-7-7---|---7-7---0---7-----||
E|--------------------|-------------------||

  3 And I can still...
e|--------------------|-------------------||
B|---5--5-5---5-5-5---|---5-5-5---5-5-5---||
G|---7--7-7---7-7-7---|---7-7-7---7-7-7---||
D|---6--6-6---6-6-6---|---6-6-6---6-6-6---||
A|---7--7-7---7-7-7---|---7-7-7---7-7-7---||
E|--------------------|-------------------||

  4 Chasing down...
e|-------------------|-------------------||
B|---5-5-5---5-5-5---|---5-5---7---5-----||
G|---7-7-7---7-7-7---|---7-7---7---6-----||
D|---6-6-6---6-6-6---|---6-6---7---7-----||
A|---7-7-7---7-7-7---|---7-7---0---7-----||
E|-------------------|-------------------||

 [Chorus]
              Born on the Bayou
e|--------------------|-------------------||
B|---5--5-5---5-5-5---|---5-5---7---5-----||
G|---7--7-7---7-7-7---|---7-7---7---6-----||
D|---6--6-6---6-6-6---|---6-6---7---7-----||
A|---7--7-7---7-7-7---|---7-7---0---7-----||
E|--------------------|-------------------||

               Born on the Bayou all right
e|--------------------|-------------------||
B|---5--5-5---5-5-5---|---5-5---7---5-----||
G|---7--7-7---7-7-7---|---7-7---7---6-----||
D|---6--6-6---6-6-6---|---6-6---7---7-----||
A|---7--7-7---7-7-7---|---7-7---0---7-----||
E|--------------------|-------------------||

               Born on the Bayou
e|--------------------|-------------------||
B|---5--5-5---5-5-5---|---5-5---5---5-----||
G|---7--7-7---7-7-7---|---7-7---7---7-----||
D|---6--6-6---6-6-6---|---6-6---6---6-----||
A|---7--7-7---7-7-7---|---7-7---7---7-----||
E|--------------------|-------------------||

e|-------------------|-------------------||
B|---5-5-5---5-5-5---|---5-5---5---5-----||
G|---7-7-7---7-7-7---|---7-7---7---7-----||
D|---6-6-6---6-6-6---|---6-6---6---6-----||
A|---7-7-7---7-7-7---|---7-7---7---7-----||
E|-------------------|-------------------||

 [Outro]
             X4
e|-------||---------------------|---------------------||
B|-------||-----5--------5------|----5--------5-------||
G|-------||:------7--------7----|------7--------7----:||
D|-------||:--6--------6--------|--6--------6--------:||
A|--2/7--||---------------------|---------------------||
E|-------||---------------------|---------------------||

************************************

| /  Slide up
| ~  Vibrato
| \  Slide down

************************************
Suggest correction
Creating personal tab
Creating personal tab
You can edit any tab online and save it as your Personal.

You can edit, replace or remove any tab part or add personal notes – all changes will be seen only by you.

Personal tabs can be accessed anytime from any device, even offline.
Learn more »
comments
print report bad tab
11 comments total. Showing first comments.
+1 reply
ontime 10 Dec 09, 2006 10:02 AM

Excellent tab. Better than the other versions.

+3 reply
edgaravo 10 May 15, 2007 09:14 AM

I am who submitted this tab. Thanks for your comments and votes.

0 reply
Cheesy Rider 61 Dec 05, 2007 06:47 AM

This is a great tab! And I prefer it to the other versions.
I like that you mensioned the complete order of the song.

guest
Wanna post a correction for this tab? Suggest correction