Oops, an error
Loading. Please wait.

Born On The Bayou Tab

version 3
version 3

Whole song

Interactive

31,048 views 60 this week
1 commentread comment
1 2 3 4 5
x 15
add to favorites
launch autoscroll
font size
0
reset
how to read this tab
guitar tuner
Autoscroll
slow
fast
+/-
esc
set tempo
stop
Help us to improve Ultimate-Guitar.com Take our survey!
×
Author
[Intro]            
e|-------|---------------------|---------------------|
B|-------|-----5--------5------|----5--------5-------|
G|-------|-------7--------7----|------7--------7-----|
D|-------|---6--------6--------|--6--------6---------|
A|--2/7--|---------------------|---------------------|
E|-------|---------------------|---------------------|  (x4)

E7                         
When I was just a little boy
E7                           D A
A-standin' to my daddy's knee
E7                                          
My papa said, "Son, don't let the man getcha
E7                        D A   
And do what he done to me"  
E7                   
'Cause he'll get you, 'Cause he'll get you now, now.
E7 
And I can remember the Fourth of July
E7                                  D A
A-runnin' through the backwoods bare
E7
And I can still hear that old hound dog barkin'
E7                          D A  E7                         D A
Chasin' down a hoodoo there,     chasin' down a hoodoo there
E7                D A
Born on the bayou...
Born on the bayou...
Born on the bayou...
Born on the bayou...  Do it, Do it

e|--------------------|---------------------|--------------------|
B|--------------------|---------------------|--------------------|
G|--2~-------2-1-2-1--|--2-1-2-1-2-1-2-1----|--1-2-1-2-1-----1-2-|
D|--------------------|------------------2--|--------------2-----|
A|--------------------|---------------------|--------------------|
E|--------------------|---------------------|--------------------|

e|-------0-----------0-|--------------------|---------------------|
B|-----3-----------3---|--------------------|---------------------|
G|-2/4-----2-1-2/4-----|--2-1-2-1-2-1-2-1-2-|-1-------------------|
D|---------------------|--------------------|----2----2~----------|
A|---------------------|--------------------|---------------------|
E|---------------------|--------------------|---------------------|

e|--2/4---4--4---2--4-|--2---2--2/4---------|--2/4---4--4---2--5-|-4---2---4\2---------|
B|--3/5---5--5---3--5-|--3---5--3/5---------|--3/5---5--5---3--5-|-5---3---5\3---------|
G|--------------------|---------------------|--------------------|---------------------|
D|--------------------|---------------------|--------------------|---------------------|
A|--------------------|---------------------|--------------------|---------------------|
E|--------------------|---------------------|--------------------|---------------------|

e|--2/4---4--4---2--4-|--2---2--2/4---------|---2---2-----0--0---|--0----4--2--0-------|
B|--3/5---5--5---3--5-|--3---5--3/5---------|---3---3-----2--2---|--0------------------|
G|--------------------|---------------------|--------------------|---------------------|
D|--------------------|---------------------|--------------------|---------------------|
A|--------------------|---------------------|--------------------|---------------------|
E|--------------------|---------------------|--------------------|---------------------|

e|---2---2-----0--0---|--0----4--2--0-----0-|---2---2-----0--0---|--0------4--2--0-----|
B|---3---3-----2--2---|--0-------------3----|---3---3-----2--2---|--0------------------|
G|--------------------|---------------------|--------------------|---------------------|
D|--------------------|---------------------|--------------------|---------------------|
A|--------------------|---------------------|--------------------|---------------------|
E|--------------------|---------------------|--------------------|---------------------|

e|---2---2-----0--0---|---------------------|
B|---3---3-----2--2---|---0-----------------|
G|---2---2-----2--2---|---1-----------------|
D|-------------2--2---|---2-----------------|
A|--------------------|---2-----------------|
E|--------------------|---------------------|

e|----------------------|----------------------|----------------------|
B|----------------------|----------------------|----------------------|
G|----------------------|----------------------|----------------------|
D|--2-----------2-------|----------------2-----|--2-----------2-------|
A|---------2h4----------|----------2--4-----4--|---------2h4----------|
E|-------------------0--|----------------------|-------------------0--|

e|----------------------|----------------------|----------------------|
B|----------------------|----------------------|----------------------|
G|----------------------|----------------------|----------------------|
D|----------------2-----|--2-----------2-------|----------------2-----|
A|----------2--4-----4--|---------2h4----------|----------2--4-----4--|
E|----------------------|-------------------0--|----------------------|

e|----------------------|---------------------|
B|----------------------|---------------------|
G|----------------------|---------------------|
D|--2-----------2-------|----------------2----|
A|---------2h4----------|----------2--4-------|
E|-------------------0--|---------------------|

[Instrumental]
e|-------|---------------------|---------------------|
B|-------|-----5--------5------|----5--------5-------|
G|-------|-------7--------7----|------7--------7-----|
D|-------|---6--------6--------|--6--------6---------|
A|--2/7--|---------------------|---------------------|
E|-------|---------------------|---------------------|  (x2)

Wish I was back on the bayou
A-rollin' with some Cajun queen
Wish I was on a fast freight train
Just a-chooglin' on down to New Orleans
Born on the bayou...
Born on the bayou...
Born on the bayou...
Born on the bayou...  Do it, Do it
 
e|----------------------|----------------------|
B|----------------------|----------------------|
G|----------------------|----------------------|
D|--2-----------2-------|----------------2-----|
A|---------2h4----------|----------2--4-----4--|
E|-------------------0--|----------------------| X7

e|--2----2----0--0-------|------------------|------------------|
B|--3----3----2--2-------|------------------|------------------|
G|--2----2----2--2----1--|------------------|------------------|
D|------------2--2----2--|------------------|------------------|
A|--------------------2--|------------------|------------------|
E|--------------------0--|------------------|------------------|

[Instrumental]
e|-------|---------------------|---------------------|
B|-------|-----5--------5------|----5--------5-------|
G|-------|-------7--------7----|------7--------7-----|
D|-------|---6--------6--------|--6--------6---------|
A|--2/7--|---------------------|---------------------|
E|-------|---------------------|---------------------|  (x4)

And I can remember the Fourth of July
A-runnin' through the backwoods bare
And I can still hear that old hound dog barkin'
Chasin' down a hoodoo there, chasin' down a hoodoo there

[Outro]
e|-------|---------------------|---------------------|
B|-------|-----5--------5------|----5--------5-------|
G|-------|-------7--------7----|------7--------7-----|
D|-------|---6--------6--------|--6--------6---------|
A|--2/7--|---------------------|---------------------|
E|-------|---------------------|---------------------|


************************************

| /  Slide up
| ~  Vibrato
| \  Slide down
| h  Hammer-on

************************************
Suggest correction
comments
print report bad tab
1 comment total.
+1 reply
paranoid70 51 Jun 20, 2009 02:35 PM

Very nice version - accurate and easy to follow. Well done.

guest
You may want to rate the tab now too:
select rating
Wanna post a correction for this tab? Suggest correction