Oops, an error
Loading. Please wait.
We have an official Down On The Corner tab made by UG professional guitarists. Check out the tab »
×
3,282 views 6 this week
2 commentsread comments
1 2 3 4 5
x 3
add to favorites
×
Save as Personal and add changes to this tab that will be seen only by you. Learn more ›
×
You can save this tab as Personal to edit and correct it or add notes. All changes will be seen only by you. Learn more »
launch autoscroll
font size
0
reset
guitar tuner
backing track
0:00
0:00
edit
Autoscroll
slow
fast
+/-
esc
set tempo
stop
Intro

g------------------------------------|
d------------------------------------|
a---3--0---3--3--0------2-3-3--------|
e--------3---------3-3---------------| x2

g-----------------------0-0----------|
d-3--0----3-3-0-------2--------------|
a------3---------3-3-----------------|
e------------------------------------|

g------------------------------------|
d------------------------------------|
a---3--0---3--3--0------2-3-3--------|
e--------3---------3-3---------------|

chorus:
g------------------------------------|
d---------------2--------------------|
a--------2-3--3----------2-3--3-0----|
e--1--1------------3--3--------------| x2

            
            
Suggest correction
Creating personal tab
Creating personal tab
You can edit any tab online and save it as your Personal.

You can edit, replace or remove any tab part or add personal notes – all changes will be seen only by you.

Personal tabs can be accessed anytime from any device, even offline.
Learn more »
Give kudos to tab author, rate the tab!
1 2 3 4 5
comments
print report bad tab
2 comments total.
0 reply
bradyponcelet55 10 Apr 25, 2017 08:27 PM

👍

0 reply
bradyponcelet55 10 Apr 25, 2017 08:28 PM

I'm like intermediate so I think this one is good

guest
Wanna post a correction for this tab? Suggest correction