Oops, an error
Loading. Please wait.

Effigy intro tab

version 1
version 1

Intro

Interactive

9,786 views 18 this week
3 commentsread comments
1 2 3 4 5
x 6
add to favorites
×
Save as Personal and add changes to this tab that will be seen only by you. Learn more ›
×
You can save this tab as Personal to edit and correct it or add notes. All changes will be seen only by you. Learn more »
launch autoscroll
font size
0
reset
how to read this tab
guitar tuner
edit
Autoscroll
slow
fast
+/-
esc
set tempo
stop
CCR - "Effigy"
Tabbed by: Edgar Vilchis (vilort@latinmail.com)
To Dave and Vero (I love you)

"Effigy" is a very beauty song

I think the intro is something like this:

e-|---------3---5---|-3---5---3---5---||
B-|-6-3-5-3---3---3-|---3---3---3---3-||
G-|-----------------|-----------------||
D-|-----------------|-----------------||
A-|-----------------|-----------------||
M-|-----------------|-----------------||

e-|---------3---5---|-3---5---3---5---||
B-|-6-3-5-3---3---3-|---3---3---3---3-||
G-|-----------------|-----------------||
D-|-----------------|-----------------||
A-|-----------------|-----------------||
M-|-----------------|-----------------||

e-|---------3---5---|-3---5---3---5---||
B-|-6-3-5-3---3---3-|---3---3---3---3-||
G-|-----------------|-----------------||
D-|-----------------|-----------------||
A-|-----------------|-----------------||
M-|-----------------|-----------------||

e-|-3---5---2---4---|-2---4---2---4---||
B-|---3---3---2---2-|---2---2---2---2-||
G-|-----------------|-----------------||
D-|-----------------|-----------------||
A-|-----------------|-----------------||
M-|-----------------|-----------------||


e-|-2~--------------|---2---2---3~----||
B-|-----------------|---3---3---3~----||
G-|-----------------|---2---2---4~----||
D-|-----------------|---0---0---5~----||
A-|-----------------|-----------------||
M-|-----------------|-----------------||


I think the solo begins like next:
(I am working about this)

e-|------------------|------------------||
B-|------------------|------------------||
G-|-9f-9\7-7--5-7\-4-|-5-4-5-4-5-4-5--4~||
D-|------------------|------------------||
A-|------------------|------------------||
M-|------------------|------------------||

Questions, comments, corrections? Please send an e-mail to
vilort@latinmail.com

Thank u CREEDENCE!!!

            
            
Suggest correction
Creating personal tab
Creating personal tab
You can edit any tab online and save it as your Personal.

You can edit, replace or remove any tab part or add personal notes – all changes will be seen only by you.

Personal tabs can be accessed anytime from any device, even offline.
Learn more »
comments
print report bad tab
3 comments total.
0 reply
edgaravo 10 May 15, 2007 09:19 AM

I am who submitted this tab. Thanks for your comments and votes.

+1 reply
darkstar94 262 May 11, 2008 05:27 PM

e-|-3---5---3---5---|-3---5---3---5---||
B-|---3---3---2---2-|---2---2---2---2-||
G-|-----------------|-----------------||
D-|-----------------|-----------------||
A-|-----------------|-----------------||
E-|-----------------|-----------------||

like that instead

0 reply
darkstar94 262 May 11, 2008 05:46 PM

whoops, actually

e-|-3---5---3---5---|-3---5---3---5---||
B-|---2---2---2---2-|---2---2---2---2-||
G-|-----------------|-----------------||
D-|-----------------|-----------------||
A-|-----------------|-----------------||
E-|-----------------|-----------------||

and the intro should be

e-|-1---0---3---5---|-3---5---3---5---||
B-|---3---3---3---3-|---3---3---3---3-||
G-|-----------------|-----------------||
D-|-----------------|-----------------||
A-|-----------------|-----------------||
E-|-----------------|-----------------||

so you can let ring

guest
Wanna post a correction for this tab? Suggest correction