Oops, an error
Loading. Please wait.
We have an official Fortunate Son tab made by UG professional guitarists. Check out the tab »
×
12,555 views 9 this week
2 commentsread comments
1 2 3 4 5
x 4
add to favorites
×
Save as Personal and add changes to this tab that will be seen only by you. Learn more ›
×
You can save this tab as Personal to edit and correct it or add notes. All changes will be seen only by you. Learn more »
launch autoscroll
font size
0
reset
guitar tuner
backing track
0:00
0:00
edit
Autoscroll
slow
fast
+/-
esc
set tempo
stop
Author
Difficulty
Band:Creedence Clearwater Revival
Song:Fortunate Son
Tuning:Standard(EADG)
Tabber:Jesper Nordberg
Email:the-stupid-bros@hotmail.com
Difficulty:Intermidiate

        Intro:
G--------------------------|
D--------------------------|
A--------------------------|      8x
E-3-3-3-3-3-3-3-3-3-3-3-3--|


         Verse:
G-----------------------------------------------------------------------|
D-----------------------------------------------------------------------|
A---------------------------------------0-1-2-3-3-3-3-3-3-3-------------| 2x
E-3-3-3-3-3-3-3-1-1-1-1-1-1-1-1-1-1-1-1---------------------3-3-3-3-3-3-|

         Chorus:
G---------------------------------------------------------------|
D---------------------------------------------------------------|
A--------------5-5-5-5-5-5-5-4-3-3-3-3-3------------------------|   2x
E-3-3-3-3-3-3-3---------------------------0-1-2-3-3-3-3-3-------|

                                  Verse:
G-----------------------------------------------------------------------|
D-----------------------------------------------------------------------|
A---------------------------------------0-1-2-3-3-3-3-3-3-3-------------| 2x
E-3-3-3-3-3-3-3-1-1-1-1-1-1-1-1-1-1-1-1---------------------3-3-3-3-3-3-|

         Chorus:
G---------------------------------------------------------------|
D---------------------------------------------------------------|
A--------------5-5-5-5-5-5-5-4-3-3-3-3-3------------------------|   2x
E-3-3-3-3-3-3-3---------------------------0-1-2-3-3-3-3-3-------|


            Bridge:
G----------------------------|
D----------------------------|
A----------------------------|    (So many times as it needs)
E-3-3-3-3-3-3-3-3-3-3-3-3----|


                                  Verse:
G-----------------------------------------------------------------------|
D-----------------------------------------------------------------------|
A---------------------------------------0-1-2-3-3-3-3-3-3-3-------------| 2x
E-3-3-3-3-3-3-3-1-1-1-1-1-1-1-1-1-1-1-1---------------------3-3-3-3-3-3-|

        Outro:
G---------------------------------------------------------------|
D---------------------------------------------------------------|
A--------------5-5-5-5-5-5-5-4-3-3-3-3-3------------------------| (Fade Out)
E-3-3-3-3-3-3-3---------------------------0-1-2-3-3-3-3-3-------|
Suggest correction
Creating personal tab
Creating personal tab
You can edit any tab online and save it as your Personal.

You can edit, replace or remove any tab part or add personal notes – all changes will be seen only by you.

Personal tabs can be accessed anytime from any device, even offline.
Learn more »
comments
print report bad tab
2 comments total.
0 reply
jrhallman 10 Sep 19, 2008 04:09 PM

How is this an intermediate tab?this has to be one of the easiest songs ive ever seen

0 reply
Jordo141 483 Jul 08, 2010 11:37 AM

^^^ I've seen plenty of easier tabs

Still not intermediate.

UG should get rid of the Difficulty tab

guest
You may want to rate the tab now too:
select rating
Wanna post a correction for this tab? Suggest correction