Oops, an error
Loading. Please wait.
94 views 1 this week
no commentswrite comment
1 2 3 4 5
3 more votes to show rating
add to favorites
×
Save as Personal and add changes to this tab that will be seen only by you. Learn more ›
×
You can save this tab as Personal to edit and correct it or add notes. All changes will be seen only by you. Learn more »
launch autoscroll
font size
0
reset
guitar tuner
edit
Autoscroll
slow
fast
+/-
esc
set tempo
stop
Author
[Intro]
  1 + 2 + 3 + 4 +  1 + 2 + 3 + 4 +  1 + 2 + 3 + 4 +  1 + 2 + 3 + 4 +
G|----------------|----------------|----------------|----------------|
D|----3-----------|----------------|----3-------3---|----------------|
A|5---------------|5---3-----------|5-------5-------|5---3-----------|
E|----------------|----------------|----------------|----------------|

  1 + 2 + 3 + 4 +  1 + 2 + 3 + 4 +  1 + 2 + 3 + 4 +  1 + 2 + 3 + 4 +
G|----------------|----------------|----------------|----------------|
D|----3-----------|5---3-------7---|5---3-------3---|----------------|
A|5---------------|----------------|--------5-------|5---3---0---R---|
E|----------------|----------------|----------------|----------------|

[Verse 1]
  1 + 2 + 3 + 4 +  1 + 2 + 3 + 4 +  1 + 2 + 3 + 4 +  1 + 2 + 3 + 4 +
G|----------------|----------------|----------------|----------------|
D|----3-----------|----------------|----3-------3---|----------------|
A|5---------------|5---3-----------|5-------5-------|5---3-----------|
E|----------------|----------------|----------------|----------------|

  1 + 2 + 3 + 4 +  1 + 2 + 3 + 4 +  1 + 2 + 3 + 4 +  1 + 2 + 3 + 4 +
G|----------------|----------------|----------------|----------------|
D|----3-----------|5---3-------7---|5---3-------3---|----------------|
A|5---------------|----------------|--------5-------|5---3---0---R---|
E|----------------|----------------|----------------|----------------|

  1 + 2 + 3 + 4 +  1 + 2 + 3 + 4 +  1 + 2 + 3 + 4 +  1 + 2 + 3 + 4 +
G|----------------|----------------|----------------|----------------|
D|----3-----------|----------------|----3-------3---|----------------|
A|5---------------|5---3-----------|5-------5-------|5---3-----------|
E|----------------|----------------|----------------|----------------|

  1 + 2 + 3 + 4 +  1 + 2 + 3 + 4 +  1 + 2 + 3 + 4 +  1 + 2 + 3 + 4 +
G|----------------|----------------|----------------|----------------|
D|----3-----------|5---3-------7---|5---3-------3---|----------------|
A|5---------------|----------------|--------5-------|5---3---0---R---|
E|----------------|----------------|----------------|----------------|

[Bridge 1]
  1 + 2 + 3 + 4 +
G|----------------|
D|----------------|
A|5---5---5---5-3-| x8
E|----------------|

The last two eighth notes in the fourth bar of this line are swung
  1 + 2 + 3 + 4 +  1 + 2 + 3 + 4 +  1 + 2 + 3 + 4 +  1 + 2 + 3 + 4 +  1 + 2 + 3 + 4 + 5 +
G|----------------|------------5---|7---5-----------|------------5-5-|7---5---------------|
D|----------------|--------7-------|--------7-------|--------7-------|--------7-----------|
A|5---5---5---5---|5---8-----------|------------8---|5---8-----------|------------8---R---|
E|----------------|----------------|----------------|----------------|--------------------|

[Verse 2]
  1 + 2 + 3 + 4 +  1 + 2 + 3 + 4 +  1 + 2 + 3 + 4 +  1 + 2 + 3 + 4 +
G|----------------|----------------|----------------|----------------|
D|----3-----------|----------------|----3-------3---|----------------|
A|5---------------|5---3-----------|5-------5-------|5---3-----------|
E|----------------|----------------|----------------|----------------|

  1 + 2 + 3 + 4 +  1 + 2 + 3 + 4 +  1 + 2 + 3 + 4 +  1 + 2 + 3 + 4 +
G|----------------|----------------|----------------|----------------|
D|----3-----------|5---3-------7---|5---3-------3---|----------------|
A|5---------------|----------------|--------5-------|5---3---0---R---|
E|----------------|----------------|----------------|----------------|

  1 + 2 + 3 + 4 +  1 + 2 + 3 + 4 +  1 + 2 + 3 + 4 +  1 + 2 + 3 + 4 +
G|----------------|----------------|----------------|----------------|
D|----3-----------|----------------|----3-------3---|----------------|
A|5---------------|5---3-----------|5-------5-------|5---3-----------|
E|----------------|----------------|----------------|----------------|

  1 + 2 + 3 + 4 +  1 + 2 + 3 + 4 +  1 + 2 + 3 + 4 +  1 + 2 + 3 + 4 +  1 + 2 + 3 + 4 +
G|----------------|----------------|----------------|----------------|----------------|
D|----3-----------|5---3-------7---|5---3-----------|----------------|----------------|
A|5---------------|----------------|--------5---3---|--5------------L|5---------------|
E|----------------|----------------|----------------|----------------|----------------|

[Bridge 2]
  1   +   2   +    1   +   2   +    1   +   2   +    1   +   2   +
G|----------------|----------------|----------------|----------------|
D|----------------|----------------|----------------|----------------|
A|1-----1-1-R-----|----------------|1-----1-1-R-----|----------------|
E|----------------|----------------|----------------|----------------|

  1   +   2   +    1   +   2   +    1   +   2   +    1   +   2   +
G|----------------|----------------|----------------|----------------|
D|----------------|----------------|----------------|----------------|
A|----------------|----------------|----------------|----------------|
E|3-----3-3-R-----|----------------|3-----3-3-R-----|----------------|

[Solo]
  1 + 2 +  1 + 2 +  1 + 2 +  1 + 2 +  1 + 2 +  1 + 2 +  1 + 2 +  1 + 2 +  1 + 2 +  1 + 2 +
 1 + 2 +  1 + 2 +
G|------3-|------3-|--------|------3-|0-------|--------|0-------|--------|------3-|--1-----|--------|--------|
D|--------|--------|------3-|--------|--------|--0---2-|--------|------0-|--------|------3-|------0-|--1-2-3-|
A|1-------|--1-----|1-------|--1-----|------2-|--------|------1-|--3-4---|1-------|--------|1-------|--------|
E|--------|--------|--------|--------|--------|--------|--------|--------|--------|--------|--------|--------|

  1 + 2 +  1 + 2 +  1 + 2 +  1 + 2 +  1 + 2 +  1 + 2 +  1 + 2 +  1 + 2 +  1 + 2 +  1 + 2 +
 1 + 2 +  1 + 2 +
G|0-------|--------|--------|------0-|------3-|--1-----|--------|--------|--------|--------|--------|--------|
D|--------|--------|--0---2-|--3-----|--------|------3-|------0-|--1-2-3-|------5-|--3-----|--------|------0-|
A|------1-|--3---4-|--------|--------|1-------|--------|1-------|--------|--------|------5-|------2-|--3-4---|
E|--------|--------|--------|--------|--------|--------|--------|--------|3-------|--------|3-------|--------|

  1 + 2 +  1 + 2 +  1 + 2 +  1 + 2 +  1 + 2 +  1 + 2 +  1 + 2 +  1 + 2 +
G|------3-|--1-----|--------|--------|--------|--------|--------|--------|
D|--------|------3-|------0-|--1-2-3-|------5-|--3-----|------5-|--3-----|
A|--------|--------|1-------|--------|--------|------5-|--------|------5-|
E|1-------|--------|--------|--------|3-------|--------|3-------|--------|

  1   +   2   +    1   +   2   +    1   +   2   +    1   +   2   +
G|----------------|----------------|----------------|----------------|
D|3-------3-------|3---3-----------|3---------------|----------------|
A|--------------5-|------------3---|----0-------1---|----2-------3---| x4
E|----------------|----------------|----------------|----------------|

  1   +   2   +    1   +   2   +    1   +   2   +    1   +   2   +
G|----------------|----------------|----------------|----------------|
D|----------------|5---3-----------|----------------|----------------|
A|----------------|--------5-------|----1-------2---|----3-------5---|
E|3-------3---3-3-|------------3---|----------------|----------------|

  1   +   2   +    1   +   2   +    1   +   2   +    1   +   2   +
G|----------------|----------------|----------------|----------------|
D|----------------|5---3-------3---|----5-------3---|----------------|
A|----------------|--------5-------|----------------|----5---3-------|
E|3-------3---3-3-|----------------|----------------|------------3---|

  1   +   2   +    1   +   2   +    1   +   2   +    1   +   2   +
G|----------------|----------------|----------------|----------------|
D|----------------|5---------------|------------0---|----2---3---4---|
A|----------------|----1-------3---|----4-----------|----------------|
E|3-------3---3-3-|----------------|----------------|----------------|

  1   +   2   +    1   +   2   +    1   +   2   +    1   +   2   +
G|0-------0-------|----------------|----0-----------|----------------|
D|----------------|----------------|0---------------|----------------|
A|----------------|----1---3---4---|----------------|----1---3---4---|
E|----------------|3---------------|------------3---|----------------|

  1 + 2 +  1 + 2 +  1 + 2 +  1 + 2 +
G|----3---|----1---|--------|--------|
D|--------|--------|----3---|----1---|
A|1-1-----|1-1-----|1-1-----|1-1-----| x3
E|--------|--------|--------|--------|

  1 + 2 +  1 + 2 +  1 + 2 +  1 + 2 +
G|----3---|----1---|--------|--------|
D|--------|--------|----3---|----1-2-|
A|1-1-----|1-1-----|1-1-----|1-1-----|
E|--------|--------|--------|--------|

  1 + 2 +  1 + 2 +  1 + 2 +  1 + 2 +
G|--------|--------|--------|--------|
D|3---3---|--------|----0-0-|1-1-2-2-|
A|--------|--0-2-3-|R-3-----|--------| x4
E|--------|4-------|--------|--------|

  1 + 2 +  1 + 2 +  1 + 2 +  1 + 2 +
G|--------|--------|--------|--------|
D|3---3---|--------|--0-R-1-|R-2-R-2-|
A|--------|--0-2-3-|R-------|--------| x3
E|--------|4-------|--------|--------|

  1 + 2 +  1 + 2 +  1 + 2 +  1 + 2 +
G|--------|--------|--------|--------|
D|3---3---|--------|----0-0-|1-1-2-2-|
A|--------|--0-2-3-|R-3-----|--------| x3
E|--------|4-------|--------|--------|

  1 + 2 +  1 + 2 +  1 + 2 +  1 + 2 +  1 + 2 +  1 + 2 +  1 + 2 +  1 + 2 +  1 + 2 +
G|----3---|----1---|--------|--------|--------|--------|--------|--------|--------||
D|--------|--------|----3---|----1---|--------|--------|--------|--------|--------||
A|1-1-----|1-1-----|1-1-----|1-1-----|1------L|1------L|1------L|1-------|1-R-----||
E|--------|--------|--------|--------|--------|--------|--------|--------|--------||


***********************************
| R   Rest
| L   Tie
***********************************
Suggest correction
Creating personal tab
Creating personal tab
You can edit any tab online and save it as your Personal.

You can edit, replace or remove any tab part or add personal notes – all changes will be seen only by you.

Personal tabs can be accessed anytime from any device, even offline.
Learn more »
Give kudos to tab author, rate the tab!
1 2 3 4 5
comments
print report bad tab
guest
You may want to rate the tab now too:
select rating
Wanna post a correction for this tab? Suggest correction