Oops, an error
Loading. Please wait.

Good Golly Miss Molly Tab

version 3
version 3

Whole song

Interactive

4,521 views 36 this week
no commentswrite comment
1 2 3 4 5
excellent!
x 3
add to favorites
launch autoscroll
font size
0
reset
how to read this tab
guitar tuner
Tab Pro tools
  • play this tab
  • loop segment
  • change instrument
  • show fretboard
  • metronome
×
Best way to learn
"Good Golly Miss Molly"
Autoscroll
slow
fast
+/-
esc
set tempo
stop
e-------------------------------13-------------------------------------------|
B----15/\15--13----13-------16/----15-13----13-------------------13----------|
G----15/\15--13----13--------------------15----15----------13-15----15-13----|
D---------------15--------------------------------------15----------------15-|
A----------------------------------------------------------------------------|
E----------------------------------------------------------------------------|


						                                    (etc)
SOLO 1
e--------------------13-----13-----13-----13-----13-----13-----13-16/-16/-16/-|
B-----------------13----16/----16/----16/----16/----16/----16/----------------|
G-------13-15-15/-------------------------------------------------------------|
D----15-----------------------------------------------------------------------|
A-----------------------------------------------------------------------------|
E-----------------------------------------------------------------------------|

							        		   (etc)
e----16-13----13-----------------------------13-----13-----13-----13-----13-|
B----------16----15/\15-----------------------------------------------------|
G----------------15/\15-13----13-15-13---15/----15/----15/----15/----15/----|
D--------------------------15-----------------------------------------------|
A---------------------------------------------------------------------------|
E---------------------------------------------------------------------------|

e-----------------------------------------------------------------------|
B-----------------------------------------------------------------------|
G----15-13----13-15-13-----------13----------15/\15-13----13-15-13------|
D----------15-----------15-13-15----15-13-15-----------15----------15---|
A-----------------------------------------------------------------------|
E-----------------------------------------------------------------------|

e---13-----13-16/--16-13----13-----13-16/-16-13----13---|
B------16/---------------16----16/--------------16------|
G-------------------------------------------------------|
D-------------------------------------------------------|
A-------------------------------------------------------|
E-------------------------------------------------------|

e--------13-------13-------13-------13-|
B-----13-------13-------13-------13----|
G--15-------15-------15-------15-------|
D--------------------------------------|
A--------------------------------------|
E--------------------------------------|

SOLO 2
e-------------------13-------13-------13-------13-------13-------13--|
B----------------13----16/------13-16----13-16----13-16----13-16-----|
G------13-15 15/-----------------------------------------------------|
D---15---------------------------------------------------------------|
A--------------------------------------------------------------------|
E--------------------------------------------------------------------|

e---16/--16/-16-13----13--------13-18/-16-18-16-18/-16-18-16-18/-16-18-16-18/--|
B------------------16----16/---------------------------------------------------|
G------------------------------------------------------------------------------|
D------------------------------------------------------------------------------|
A------------------------------------------------------------------------------|
E------------------------------------------------------------------------------|

e---16-18-16-18-16-18-16-18/\18-16-----16-18-16-18-16-18/\18-16---------|
B----------------------------------18---------------------------18------|
G-----------------------------------------------------------------------|
D-----------------------------------------------------------------------|
A-----------------------------------------------------------------------|
E-----------------------------------------------------------------------|

e----16-----------16-----------16-----------16-----------16-------------16--|
B-------18-16--------18-16--------18-16--------18-16--------18-16----16-----|
G-------------17-----------17-----------17-----------17-----------17--------|
D---------------------------------------------------------------------------|
A---------------------------------------------------------------------------|
E---------------------------------------------------------------------------|

e--------------------------13-----13-----13-16/-16/---16-13----------------------|
B-----------------------13----16/----16/--------------------16-------------------|
G-15-13-15-13-15-13-15/----------------------------------------15/-15/-15-13-----|
D----------------------------------------------------------------------------15--|
A--------------------------------------------------------------------------------|
E--------------------------------------------------------------------------------|

e------------------------------------------------------------------------|
B------------------------------------------------------------------------|
G------------------------------------------------------------------------|
D----15/-15/-15-13----13-------------------------------------------------|
A------------------15----15----------------------------------------------|
E------------------------------------------------------------------------|
comments
We did not receive enough feedback on this tab! Please rate:
print report bad tab
1 2 3 4 5
I want to post or [tab]
guest
You may want to rate the tab now too:
select rating
Please do not post tabs as comments. Select "correction" instead!