Oops, an error
Loading. Please wait.

Have You Ever Seen The Rain Bass Tab

version 4
4,290 views 6 this week
no commentswrite comment
1 2 3 4 5
please rate
add to favorites
launch autoscroll
font size
0
reset
guitar tuner
Tab Pro tools
  • play this tab
  • loop segment
  • change instrument
  • show fretboard
  • metronome
×
Best way to learn
"Have You Ever Seen The Rain"
Autoscroll
slow
fast
+/-
esc
set tempo
stop
Contributor
The slashes indicate a little play with the fingers to make a sort of
slideless slide, if I can say that. For example, in the first measure of the
[VERSE], you'll see the third fret on the A string followed by the 5th fret
on the D string. Try playing it by covering both the A and D strings on the
third fret, hitting the notes on the A string, then on the fourth beat of
the measure, hit the D string and hammer on to the 5th fret. Listen
carefully in the song and you'll hear how it really goes. This was just my
simple way of doing it.

Tabbed by Mike Oxner (moxner@nbnet.nb.ca)

[INTRO]
  Am       F        C        G        C        C
G:2-2-2-2-|--------|--------|20------|--------|54-2-0-0|
D:--------|3-3-3-3-|--------|---2-2--|--------|--------|
A:--------|--------|3-3-3-3-|--------|3--33---|--------|
E:--------|--------|--------|------3-|--------|--------|

[VERSE]
  C                                                              G
    Someone told me long ago  There's a calm before the storm, I know
  G                  C
    It's been coming for some time

  C        C        C        C        G        G        C        C
G:--------|--------|--------|--------|------/7|------/7|--------|--------|
D:------/5|------/5|------/5|----2-3-|5--55---|5--55---|------/5|------/5|
A:3--33---|3--33---|3--33---|3--3----|--------|--------|3--33---|3--33---|
E:--------|--------|--------|--------|--------|--------|--------|--------|

  C                                                         G
    When it's over, so they say   It'll rain a sunny day, I know
  G                   C
    Shining down like water

  C        C        C        C        G        G        C        C
G:--------|--------|--------|--------|------/7|------/7|--------|--------|
D:------/5|------/5|------/5|----2-3-|5--55---|5--55---|------/5|------2-|
A:3--33---|3--33---|3--33---|3--3----|--------|--------|3--33---|3--33---|
E:--------|--------|--------|--------|--------|--------|--------|--------|

[CHORUS]
  F         G                C    C/B      Am    Am/G
    I wanna know    Have you ever seen the rain
  F         G                C    C/B      Am    Am/G
    I wanna know    Have you ever seen the rain

  F        G        C   C/B  Am  Am/G F        G        C   C/B  Am  Am/G   
G:--------|--------|5--54--4|2--20--0|--------|--------|5--54--4|2--20--0|
D:3--33---|5--55---|--------|--------|3--33---|5--55---|--------|--------|
A:--------|--------|--------|--------|--------|--------|--------|--------|
E:--------|--------|--------|--------|--------|--------|--------|--------|

  F        G               C     
    Coming down on a sunny day

  F        G        C        C
G:--------|--------|--------|54-2-0-0|
D:3--33---|5--55---|----/5/5|--------|
A:--------|--------|3--3----|--------|
E:--------|--------|--------|--------|

[VERSE]
  C                                                             G
    Yesterday and days before   Sun is cold and rain is hard, I know
  G                   C
    Been that way for all my time

  C        C        C        C        G        G        C        C
G:--------|--------|--------|--------|------/7|------/7|--------|54-2-0-0|
D:------/5|------/5|------/5|----2-3-|5--55---|5--55---|------/5|--------|
A:3--33---|3--33---|3--33---|3--3----|--------|--------|3--33---|--------|
E:--------|--------|--------|--------|--------|--------|--------|--------|

  C                                                                G
    'Til forever on it goes    Through the circle fast and slow, I know
  G                  C
    It can't stop, I wonder

  C        C        C        C        G        G        C        C
G:--------|--------|--------|--------|------/7|------/7|--------|--------|
D:------/5|------/5|------/5|----2-3-|5--55---|5--55---|------/5|----0-2-|
A:3--33---|3--33---|3--33---|3--3----|--------|--------|3--33---|3--3----|
E:--------|--------|--------|--------|--------|--------|--------|--------|

[CHORUS]
  F         G                C    C/B      Am    Am/G
    I wanna know    Have you ever seen the rain
  F         G                C    C/B      Am    Am/G
    I wanna know    Have you ever seen the rain

  F        G        C   C/B  Am  Am/G F        G        C   C/B  Am  Am/G   
G:--------|--------|5--54--4|2--20--0|--------|--------|5--54--4|2--20--0|
D:3--33--3|5--55--5|--------|--------|3--33--3|5--55--5|--------|--------|
A:--------|--------|--------|--------|--------|--------|--------|--------|
E:--------|--------|--------|--------|--------|--------|--------|--------|

  F        G               C     
    Coming down on a sunny day

  F        G        C        C
G:--------|--------|--------|54-2-0-0|
D:3--33-33|5--55--5|----/5/5|--------|
A:--------|--------|3--3----|--------|
E:--------|--------|--------|--------|

[CODA]
  F         G                C    C/B      Am    Am/G
    I wanna know    Have you ever seen the rain
  F         G                C    C/B      Am    Am/G
    I wanna know    Have you ever seen the rain

  F        G        C   C/B  Am  Am/G F        G        C   C/B  Am  Am/G   
G:--------|--------|5--54--4|2--20--0|--------|--------|5--54--4|2--20--0|
D:3--33--3|5--55--5|--------|--------|3--33--3|5--55--5|--------|--------|
A:--------|--------|--------|--------|--------|--------|--------|--------|
E:--------|--------|--------|--------|--------|--------|--------|--------|

  F        G               C     
    Coming down on a sunny day

  F        G        C        C        C
G:--------|--------|--------|20------|--------|
D:3--33-33|5--55--5|----/5/5|---2-2--|--------|
A:--------|--------|3--3----|--------|3-------|
E:--------|--------|--------|------3-|--------|

For those who don't know the C/B and the Am/G when playing the guitar part,
here's what I came up with for those:

        C/B         Am/G             
      ------       ------
      ||||||       ||||1|
      ||2|||       ||2|||
      |3||||       ||||||
      ||||||       ||||||
comments
We did not receive enough feedback on this tab! Please rate:
print report bad tab
1 2 3 4 5
I want to post or [tab]
guest
You may want to rate the tab now too:
select rating
Please do not post tabs as comments. Select "correction" instead!