Oops, an error
Loading. Please wait.

I Heard It Through The Grapevine bass

version 2
version 2

Whole song

  • Maybe more complete improved version and more stru... Show more

Interactive

1,405 views 18 this week
3 commentsread comments
1 2 3 4 5
2 more votes to show rating
add to favorites
×
Save as Personal and add changes to this tab that will be seen only by you. Learn more ›
×
You can save this tab as Personal to edit and correct it or add notes. All changes will be seen only by you. Learn more »
launch autoscroll
font size
0
reset
guitar tuner
edit
Autoscroll
slow
fast
+/-
esc
set tempo
stop
Author
Difficulty
About this tab version
Maybe more complete improved version and more structured than the other one rated 3 stars... See for yourself... Enjoy, it's Creedence Clearwater Revival . Regards, Bruno Frenchy. Was this info helpful? Yes No
I Heard It Through the Grapevine
Creedence Clearwater Revival

Tempo:  118 bpm  
Key: Dm

INTRO: ++ ++ 00:08 (from 00:08 Bass play x2)
G|-------|  |--------------|-------------|-
D|-------|  |--------3-----|-------3-2r--|-
A|-0-3-4-|  |-5r---5---5r--|-5-5---------|- x2
E|-------|  |--------------|-------------|-

G|-------||-
D|-------||-
A|-0-3-4-||-
E|-------||-
Hoooo,

VERSE 1: 00:15
G|--------------|-------------|-------------|-------------|-
D|----------3r--|-------------|-------------|-------------|-
A|-5r--5-5----5-|-5--5-8-5----|-------------|-------------|- D
E|--------------|----------5r-|-5-5--0-5-4--|-3r-3--0-3-4-|-    A  G
Bet you're wondering how I knew,
about you're plans to make me blue.
G|--------------|--------------|------------|-----------|-
D|----------3r--|-----5-6-7----|----7-6-5r--|-7r-5------|-
A|-5r--5-5----5-|-5-7-------7g-|-7----------|------8-7-\|- D
E|--------------|--------------|------------|-----------|-    A  G
With some other guy that you knew before.
Between the two of us guys you. know I love you more.
G|--------------|--------------|---------------||------------|-
D|--------4-----|--------------|-7r--5---------||------------|-
A|-2r--2----2---|------0-3-4-5-|-------8-7-5r--||-0-3-4-(5r)-|- B G D
E|------------3-|-3-3----------|---------------||------------|-
It took me by surprise I must say, when I found out yesterday.

CHORUS 1: 00:41
G|-------------|-----------|-------------||---------------|-
D|-------------|-7r--5-----|-------------||---------------|-
A|-5r--5-8-5r-5|-------8-7-|-------------||----0-3-4-(5r)-|- D
E|-------------|-----------|-3--3-3--3-3-||-3r------------|-    G  D
Hoo, I heard it through the grapevine,
not much longer would you be mine.
G|-------------|-----------|-------------||---------------|-
D|-------------|-7r--5-----|-------------||---------------|-
A|-5r--5-8-5r-5|-------8-7-|-------------||----0-3-4-(5r)-|- D
E|-------------|-----------|-3--3-3--3-3-||-3r------------|-    G  D
Ooo, I heard it through the grapevine,
and I'm just about to lose my mind,
honey, honey, yeah.

Interlude: 00:58   Dm  4x
G|---------------|-------------||---------------|-------------||-
D|---------3-----|-------3-2r--||---------3-----|-------3-2r--||-
A|-(5r)--5---5r--|--5-5--------||-0-5r--5---5r--|--5-5--------||- x2
E|---------------|-------------||---------------|-------------||-

G|-------||-
D|-------||-
A|-0-3-4-||-
E|-------||-

VERSE 2: 01:13
G|--------------|-------------|-------------|-------------|-
D|----------3r--|-------------|-------------|-------------|-
A|-5r--5-5----5-|-5--5-8-5----|-------------|-------------|- D
E|--------------|----------5r-|-5-5--0-5-4--|-3r-3--0-3-4-|-    A  G
You know that a man ain't supposed to cry,
but these tears I can't hold inside.
G|--------------|--------------|------------|-----------|-
D|----------3r--|-----5-6-7----|----7-6-5r--|-7r-5------|-
A|-5r--5-5----5-|-5-7-------7g-|-7----------|------8-7-\|- D
E|--------------|--------------|------------|-----------|-    A  G
Losing you would end my life you see,
cause you mean that much to me.
G|--------------|--------------|---------------||------------|-
D|--------4-----|--------------|-7r--5---------||------------|-
A|-2r--2----2---|------0-3-4-5-|-------8-7-5r--||-0-3-4-(5r)-|- B G D
E|------------3-|-3-3----------|---------------||------------|-
You could have told me yourself, that you’ve found someone else.  

CHORUS 1: 01:39
G|-------------|-----------|-------------||---------------|-
D|-------------|-7r--5-----|-------------||---------------|-
A|-5r--5-8-5r-5|-------8-7-|-------------||----0-3-4-(5r)-|- D
E|-------------|-----------|-3--3-3--3-3-||-3r------------|-    G  D
Instead, I heard it through the grapevine,
not much longer would you be mine.
G|-------------|-----------|-------------||---------------|-
D|-------------|-7r--5-----|-------------||---------------|-
A|-5r--5-8-5r-5|-------8-7-|-------------||----0-3-4-(5r)-|- D
E|-------------|-----------|-3--3-3--3-3-||-3r------------|-    G  D
Hooo, I heard it through the grapevine,
and I'm just about to lose my mind,
honey, honey, yeah.


Interlude: 01:55   Dm  4x
G|---------------|-------------||---------------|-------------||-
D|---------3-----|-------3-2r--||---------3-----|-------3-2r--||-
A|-(5r)--5---5r--|--5-5--------||-0-5r--5---5r--|--5-5--------||- x2
E|---------------|-------------||---------------|-------------||-

G|-------||-
D|-------||-
A|-0-3-4-||-
E|-------||-

VERSE 3: 02:10
G|--------------|-------------|-------------|-------------|-
D|----------3r--|-------------|-------------|-------------|-
A|-5r--5-5----5-|-5--5-7-5----|-------------|-------------|- D
E|--------------|----------5r-|-5-5--0-5-4--|-3r-3--0-3-4-|-    A  G
People say believe half of what you see,
nah nah nah from what you hear.
G|--------------|--------------|------------|-----------|-
D|----------3r--|-----5-6-7----|----7-6-5r--|-7r-5------|-
A|-5r--5-5----5-|-5-7-------7g-|-7----------|------7-5-\|- D
E|--------------|--------------|------------|-----------|-    A  G
I can't help being confused,
if it's true wouldn’t you tell me, hear?
G|--------------|--------------|---------------||------------|-
D|--------4-----|--------------|-7r--5---------||------------|-
A|-2r--2----2---|------0-3-4-5-|-------8-7-5r--||-0-3-4-(5r)-|- B G D
E|------------3-|-3-3----------|---------------||------------|-
Do you plan to let me go, for the other guy that you knew before?

CHORUS 1: 02:35
G|-------------|-----------|-------------||---------------|-
D|-------------|-7r--5-----|-------------||---------------|-
A|-5r--5-8-5r-5|-------8-7-|-------------||----0-3-4-(5r)-|- D
E|-------------|-----------|-3--3-3--3-3-||-3r------------|-    G  D
Hoo, I heard it through the grapevine,
not much longer would you be mine.
G|-------------|-----------|-------------||---------------|-
D|-------------|-7r--5-----|-------------||---------------|-
A|-5r--5-8-5r-5|-------8-7-|-------------||----0-3-4-(5r)-|- D
E|-------------|-----------|-3--3-3--3-3-||-3r------------|-    G  D
Hooo, I heard it through the grapevine,
and I'm just about to lose my mind,
honey, honey, yeah.


Interlude: 02:52   Dm  4x
G|---------------|-------------||---------------|-------------||-
D|---------3-----|-------3-2r--||---------3-----|-------3-2r--||-
A|-(5r)--5---5r--|--5-5--------||-0-5r--5---5r--|--5-5--------||- x2
E|---------------|-------------||---------------|-------------||-

G|-------||-
D|-------||-
A|-0-3-4-||-
E|-------||-

Instrumental: 03:08  (Play verse)
G|--------------|-------------|-------------|-------------|-
D|----------3r--|-------------|-------------|-------------|-
A|-5r--5-5----5-|-5--5-8-5----|-------------|-------------|- D
E|--------------|----------5r-|-5-5--0-5-4--|-3r-3--0-3-4-|-    A  G

G|--------------|--------------|------------|-----------|-
D|----------3r--|-----5-6-7----|----7-6-5r--|-7r-5------|-
A|-5r--5-5----5-|-5-7-------7g-|-7----------|------7-5-\|- D
E|--------------|--------------|------------|-----------|-    A  G

G|--------------|--------------|---------------||------------|-
D|--------4-----|--------------|-7r--5---------||------------|-
A|-2r--2----2---|------0-3-4-5-|-------8-7-5r--||-0-3-4-(5r)-|- B G D
E|------------3-|-3-3----------|---------------||------------|-

Chorus / Outro: 03:32 (repeat till fade out) X2
G|-------------|-----------|-------------||---------------|-
D|-------------|-7r--5-----|-------------||---------------|-
A|-5r--5-8-5r-5|-------8-7-|-------------||----0-3-4-(5r)-|- D
E|-------------|-----------|-3--3-3--3-3-||-3r------------|-    G  D
Hooo, I heard it through the grapevine,
not much longer would you be mine.
G|-------------|-----------|-------------||---------------|-
D|-------------|-7r--5-----|-------------||---------------|-
A|-5r--5-8-5r-5|-------8-7-|-------------||----0-3-4-(5r)-|- D
E|-------------|-----------|-3--3-3--3-3-||-3r------------|-    G  D
Hooo, I heard it through the grapevine,
and I'm just about to lose my mind,

End: 03:53

            
            
Suggest correction
Creating personal tab
Creating personal tab
You can edit any tab online and save it as your Personal.

You can edit, replace or remove any tab part or add personal notes – all changes will be seen only by you.

Personal tabs can be accessed anytime from any device, even offline.
Learn more »
Give kudos to tab author, rate the tab!
1 2 3 4 5
comments
print report bad tab
3 comments total.
0 reply
Bruno Frenchy 4,686 Jan 29, 2016 10:04 AM

Wahooo ! Tab approved after only 3 minutes in the approval queue... I feel honoured and very privileged... Well, now you just have to play it and rate it... Enjoy it's Creedence Clearwater Revival !!

0 reply
driesroelandt1 10 May 28, 2017 06:33 PM

As a beginner, I'm wondering what you do to perform the long version of the song?

guest
You may want to rate the tab now too:
select rating
Wanna post a correction for this tab? Suggest correction