Oops, an error
Loading. Please wait.
We have an official Long As I Can See The Light tab made by UG professional guitarists. Check out the tab »
×
1,075 views 24 this week
1 commentread comment
1 2 3 4 5
x 3
add to favorites
×
Save as Personal and add changes to this tab that will be seen only by you. Learn more ›
×
You can save this tab as Personal to edit and correct it or add notes. All changes will be seen only by you. Learn more »
launch autoscroll
font size
0
reset
how to read this tab
guitar tuner
edit
Autoscroll
slow
fast
+/-
esc
set tempo
stop
Author
[Intro]

e|---------------------------------------------------------------------------|
B|------4-5--5-5-4-----------------------------------------------------------|
G|------4-4--4-4-4-----------------------------------------------------------|
D|------4-6--6-6-4-----------------------------------------------------------|
A|---------------------------------------------------------------------------|
E|---------------------------------------------------------------------------|


[Verse]

(Rhythm)

e|---2--------------4-2------------2-0------------2--------------0-2---------|
B|-4-2-4----------4-4-4----------4-2-0----------4-2-4----------4-0-2---------|
G|-4-3-4----------4-4-4----------4-3-1----------4-3-4----------4-1-3---------| 
D|-4-4-4----------4-6-4----------4-4-2----------4-4-4----------4-2-4---------|
A|-2-4-2----------2-6-2----------2-4-2----------2-4-2----------2-2-4---------|
E|---2--------------4--------------2-0------------2--------------0-2---------|

(Lead)

e|--------------------------------------0-0-0--------------------------------|
B|-----4-5-5-5-4--------7-7-7-7---------0-3-0------------------4-5-7---------|
G|-----4-4-4-4-4--------6-6-6-6---------1-1-1------------------4-4-6---------| 
D|-----4-6-6-6-4--------8-8-8-8--------------------------------4-6-8---------|
A|---------------------------------------------------------------------------|
E|---------------------------------------------------------------------------|


[Solo] 

(Transcribed from saxophone to guitar)

e|--------------------------------------------------6b7-4-7------------------|
B|-4/7~---4-4-4-4-4-----------------------------7-7---------7b9br7~----------|
G|------------------6p4-4-4-4-4-4---4h6-4~---------------------------8\6~----|
D|--------------------------------6------------------------------------------|
A|---------------------------------------------------------------------------|
E|---------------------------------------------------------------------------|

e|---------------------------------------------------------------------------|
B|-------12b14~-pb14pbr12-12--pb12pbr11-9------------------------------------|
G|-11-11-----------------------------------pb13pbr11-8--8-6~-----------------|
D|---------------------------------------------------------------------------|
A|---------------------------------------------------------------------------|
E|---------------------------------------------------------------------------|

e|---------------------------------------------------------------------------|
B|-----5/7-7--7b9br7--4-4-4-4-4----------------------------------------------|
G|-4-4--------------------------6p4-4-4---4h6-4~-----------------------------|
D|--------------------------------------6------------------------------------|
A|---------------------------------------------------------------------------|
E|---------------------------------------------------------------------------|
 
[Outro] (Transcirbed from saxophone to guitar)

e|------------------------------------7--------------------------------------|
B|-4-4-4-4-4----------------------7b9---7b9-7~------3-3----------------------|
G|-----------6p4-4---4h6-4~-----------------------------4-4---4~-------------|
D|-----------------6----------------------------------------6----------------|
A|---------------------------------------------------------------------------|
E|---------------------------------------------------------------------------|

************************************

| h    Hammer-on
| p    Pull-off
| b    Bend
| br   Bend release
| pb   Pre-bend
| pbr  Pre-bend release
| /    Slide up
| \    Slide down
| ~    Vibrato

************************************

            
            
Suggest correction
Creating personal tab
Creating personal tab
You can edit any tab online and save it as your Personal.

You can edit, replace or remove any tab part or add personal notes – all changes will be seen only by you.

Personal tabs can be accessed anytime from any device, even offline.
Learn more »
Give kudos to tab author, rate the tab!
1 2 3 4 5
comments
print report bad tab
1 comment total.
0 reply
natehelms 10 Feb 03, 2017 06:26 PM

Went down the line. This is spot on.

guest
You may want to rate the tab now too:
select rating
Wanna post a correction for this tab? Suggest correction