Oops, an error
Loading. Please wait.

Lookin Out My Back Door Bass Tab

version 1
version 1

Whole song

Interactive

11,653 views 15 this week
no commentswrite comment
1 2 3 4 5
x 4
add to favorites
launch autoscroll
font size
0
reset
guitar tuner
Autoscroll
slow
fast
+/-
esc
set tempo
stop
Help us to improve Ultimate-Guitar.com Take our survey!
×
Author
CCR - Looking Out My Back Door
==============================

tabbed by the bass playing sheep

Kinda hard to hear some parts, so no bawling if something ain't right... lol.

corrections, comments welcome: sheep611@gmail.com

Enjoy.

Intro:
------

   Bb        Gm           Eb  Bb    F    Bb       
G|---------|------------|---3-----|----------|
D|---------|-----5----5-|-1-----3-|----------|
A|-1---1---|---35---35--|-----1---|----0-1---|
E|---1---1-|-3----3-----|---------|-113----1-|


Part 1: (Just got home from Illinois...)
--------

   Bb        Gm         Eb        F
G|---------|----------|---3-----|-------------|
D|---------|----------|-1-----3-|-------------|
A|-1---1---|----------|-----1---|---3-------0-|
E|---1---1-|-3-3-3-33-|---------|-1---1-1-3---|

   Bb          Gm          Eb  Bb    F
G|-----------|-----------|---------|-------------|
D|-----------|---------5-|-1-1-----|-------------|
A|-1---1-110-|---5----5--|-----1-1-|----01-----0-|
E|---1-------|-3---3-3---|---------|-113---1-3---|

   Bb          Gm          Eb  Bb      F
G|-----------|-----------|---3-------|-------------|
D|-----------|---------5-|-1-1----33-|-------------|
A|-1---1-11--|---5----5--|-----1-1---|----33-----0-|
E|---1-----1-|-3---3-3---|-----------|-1-1---113---|

   Bb        Gm         Eb        F
G|---------|----------|---3-----|-------------|
D|---------|----------|-1-----3-|-------------|
A|-1---1---|----------|-----1---|-------0-1---|
E|---1---1-|-3-3-3-33-|---------|-1-1-3-----1-|


Part 2: (Tambourines and elephants...)
-------
  
   F         Eb  Bb        G     F   
G|---------|---------|---------|-----------|
D|---------|-1-1-----|---------|-----------|
A|---------|-----1-1-|-1-1-----|---------0-|
E|-1-1-1-1-|---------|-----3-3-|-1-1-1-13--|

   Bb          Gm          Eb  Bb    F       Bb
G|-----------|-----------|---3-----|-------------|
D|-----------|---------5-|-1-----3-|-------------|
A|-1---1-110-|---5----5--|-----1---|-------0-1---|
E|---1-------|-3---3-3---|---------|-1-1-3-----1-|


Guitar solo 1:
-------------

   Bb          Gm          Eb  Bb    F       Bb  
G|-----------|-----------|---3-----|-------------|
D|-----------|---------5-|-1-----3-|-------------|
A|-1---1-110-|---5----5--|-----1---|-------0-1-1-|  x2
E|---1-------|-3---3-3---|---------|-1-1-3-------|


Part 2


Guitar solo 2:
--------------
  
   Bb             Bb A Ab  Gm          F
G|----------|------------|-----------|-----------|
D|----------|------------|---------5-|---------3-|
A|-1--------|------------|---5----5--|---3----3--|
E|----------|----4/6-5-4-|-3---3-3---|-1---1-1---|

   C   Am    G          
G|---------|-----------|
D|---5-----|-----------|
A|-3---0-0-|--------02-|
E|---------|-3-3-3-3---|


Part 3: (forward troubles Illinois...)
------
  
   C         Am          F   C       G
G|---------|---------2-|---------5-|---------------|
D|---------|---2----2--|--------5--|---------------|
A|-3---3---|-0---0-0---|---3-3-3---|---5-------0-2-|
E|---3---3-|-----------|-1---------|-3---3-3-3-----|

   C          Am         F   C      G   CGC
G|----------|----------|----------|---------|
D|----------|---2---22-|----------|---------|
A|-3---3----|-0---0----|-----3-33-|---5-3-3-|
E|---3---33-|----------|-1-1------|-3----3--|

              F   C     G       CGC
G|----------|---------|-------------|
D|----------|---------|-------------|
A|----------|-----3-3-|-----0-2-3-3-|
E|----------|-1-1-----|-3-3------3--|

Thats it, have fun!

Lyrics:
-------

Just got home from Illinois, lock the front door, oh boy!
Got to sit down, take a rest on the porch.
Imagination sets in, pretty soon I'm singing:
"Doo, doo, doo, Lookin' out my back door..."

There's a giant doing cartwheels, a statue wearin' high heels
Look at all the happy creatures dancing on the lawn.
A dinosaur Victrola listening to Buck Owens,
"Doo, doo, doo, Lookin' out my back door..."

Tambourines and elephants are playing in the band,
Won't you take a ride on the flyin' spoon? (Doo, doo doo)
Wonderous apparition provided by magician.
"Doo, doo, doo, Lookin' out my back door..."

Tambourines and elephants are playing in the band,
Won't you take a ride on the flyin' spoon? (Doo, doo doo)
Bother me tomorrow, today, I'll buy no sorrows.
"Doo, doo, doo, Lookin' out my back door..."

Forward troubles Illinois, lock the front door, oh boy!
Look at all the happy creatures dancing on the lawn.
Bother me tomorrow, today I'll buy no sorrows,
"Doo, doo, doo, Lookin' out my back door..."
Suggest correction
comments
print report bad tab
guest
You may want to rate the tab now too:
select rating
Wanna post a correction for this tab? Suggest correction