Oops, an error
Loading. Please wait.
We have an official Lookin Out My Back Door tab made by UG professional guitarists. Check out the tab »
×

Lookin Out My Back Door bass

version 2
version 2

Whole song

  • It's a bit simplified so listen to the song and pl... Show more

Interactive

70 views 1 this week
no commentswrite comment
1 2 3 4 5
3 more votes to show rating
add to favorites
×
Save as Personal and add changes to this tab that will be seen only by you. Learn more ›
×
You can save this tab as Personal to edit and correct it or add notes. All changes will be seen only by you. Learn more »
launch autoscroll
font size
0
reset
guitar tuner
backing track
0:00
0:00
edit
Autoscroll
slow
fast
+/-
esc
set tempo
stop
About this tab version
It's a bit simplified so listen to the song and play notes twice here and there, to make it sound more full, you know.. Have Fun :). Was this info helpful? Yes No
Intro

G|----|----|----------------|----------------|-----3----------|
D|----|----|-----3-----3----|----------------|--1--------3----|
A|----|----|--1-----1-------|-----5-----5----|--------1-------|
E|----|----|----------------|--3-----3-------|----------------|

                               Verse
G|-----------2--3--------3----|----------------|----------------|-----3----------|
D|--3-----5-----------3-------|-----3-----3----|----------------|--1--------3----|
A|----------------------------|--1-----1-------|-----5-----5----|--------1-------|
E|----------------------------|----------------|--3-----3-------|----------------|


G|-----------------------2----|----------------|----------------|-----3----------|
D|--3-----------3--3--5-------|-----3-----3----|----------------|--1--------3----|
A|--------3-------------------|--1-----1-------|-----5-----5----|--------1-------|
E|----------------------------|----------------|--3-----3-------|----------------|


G|-----------2--3-------------|----------------|----------------|-----3----------|
D|--3-----5-----------3-------|-----3-----3----|----------------|--1--------3----|
A|----------------------------|--1-----1-------|-----5-----5----|--------1-------|
E|----------------------------|----------------|--3-----3-------|----------------|


G|-----------------------2----|----------------|----------------|-----3--3-------|
D|--3-----------3--3--5-------|-----3-----3----|----------------|--1--------3----|
A|--------3-------------------|--1-----1-------|-----------5----|----------------|
E|----------------------------|----------------|--3--3--3-------|----------------|

                              Chorus
G|-----------2--3-------------|----------------|----------------|----------------|
D|--3-----5-----------3-------|--3-----3--3----|--1--1-----3----|----------------|
A|----------------------------|-----3----------|--------1-------|--1--1----------|
E|----------------------------|----------------|----------------|--------3--3----|


G|----------------------------|----------------------------|----------------|
D|----------------------------|--------3-------------------|----------------|
A|-----------------------0----|--1-----------1--------1----|-----5-----5----|
E|--1-----1-----1--1--3-------|--------------------1-------|--3-----3-------|

                                                Guitar Solo
G|-----3----------|-----------2--3-------------|----------------|----------------|
D|--1--------3----|--3-----5-----------3--3----|-----3----------|----------------|
A|--------1-------|----------------------------|--1-----1--1----|-----5-----5----|
E|----------------|----------------------------|----------------|--3-----3-------|


G|-----3----------|----------------------------|----------------------------|
D|--1-------------|--3-------------------------|--------3--------------3----|
A|--------1--1----|--------3--------------0----|--1-----------------1-------|
E|----------------|--------------1--1--3-------|----------------------------|

                                                                 Chorus
G|----------------|-----3----------|----------------------------|----------------|
D|----------------|--1-------------|----------------------------|--3--3--3--3----|
A|-----------5----|--------1--1----|-----------0--1-------------|----------------|
E|--3--6--3-------|----------------|--1-----3-----------1-------|----------------|


G|----------------|----------------|----------------------------|----------------|
D|--1--1----------|----------------|----------------------------|-----3-----3----|
A|--------1--1----|--1--1----------|-----------------------0----|--1-----1-------|
E|----------------|--------3--3----|--1-----1-----1--1--3-------|----------------|

                                                                 Bridge
G|----------------|-----3----------|-----------2--3-------------|-------|
D|----------------|--1--------3----|--3-----5-----------3-------|-------|
A|-----5-----5----|--------1-------|----------------------------|-------|
E|--3-----3-------|----------------|----------------------------|-------|


G|----------------------------|----------------|----------------------------|
D|----------------------------|----------------|----------------------------|
A|-----------------1--0-------|----------------|--------3-----3-------------|
E|-----------------------4----|--3--3--3--3----|--1--------1--------3--3----|

                                                Verse
G|----------------|----------------------------|----------------|----------------|
D|----------------|----------------------------|----------------|-----2-----2----|
A|--3--3--0--0----|--------------------0--2----|--3-----3-------|--0-----0-------|
E|----------------|--3-----3-----3--3----------|-----3-----3----|----------------|

                                       Slow     Outro
G|----------------|----------------------------|----------------|
D|--3-----3-------|----------------------------|----------------|
A|-----3-----3----|--------5-----------0--2----|--3-----3-------|
E|----------------|--3-----------3--3----------|-----3-----3----|


 
G|----------------------------|----------------|----------------------------|
D|--------2--------------2g---|--3--3--2--2----|----------------------------|
A|--0-----------0-------------|----------------|--5-----5-----3-----3-------|
E|----------------------------|----------------|-----------------3----------|

                               Fast
G|----------------------------|----------------|----------------------------|----||
D|----------------------------|--3--3----------|----------------------------|----||
A|----------------------------|--------3--3----|--------5--2--3-----3-------|----||
E|----------------------------|----------------|--3--------------3----------|----||



************************************

| g  Grace note

************************************

            
            
Suggest correction
Creating personal tab
Creating personal tab
You can edit any tab online and save it as your Personal.

You can edit, replace or remove any tab part or add personal notes – all changes will be seen only by you.

Personal tabs can be accessed anytime from any device, even offline.
Learn more »
Give kudos to tab author, rate the tab!
1 2 3 4 5
comments
print report bad tab
guest
You may want to rate the tab now too:
select rating
Wanna post a correction for this tab? Suggest correction